PrimaNota.ru - самый крупный в мире бесплатный архив песенных текстов, аккордов, табулатур и нот


Cattle Decapitation - Regret And The Grave - таба, видео

Регистрация Запомнить меня
Войти через:  Facebook Google Twitter Vk Yandex Mail.ru

Cattle Decapitation - Regret And The Grave - таба, видео

Печатать
Просмотров: 60
-------------------------------------------------------------------------------
          Regret And The Grave by (The almighty) Cattle Decapitation
-------------------------------------------------------------------------------
Tabbed by: PhuckYuToo

Tuning: Eb Standard

The violin intro: (R1)
======================
e|---------------------------------------------------------------------------|\
B|--------------------------------10~----------------------------------------| |
G|-------------9~---12pbr10~----------9~--10-12-10~----12--10/12\10--9~------| |
D|---/7~--10~----------------------------------------------------------------| |
A|---------------------------------------------------------------------------| |
E|---------------------------------------------------------------------------| |
                                                                               |
e|---------------------------------------------------------------------------| |
B|------------------------------/10~------10--12h13p12~--10------------------| |
G|-------------7b8~--7~--5~-----------9~--------------------12-10~-h12p10-9~-| |
D|----7~--10~----------------------------------------------------------------| |
A|---------------------------------------------------------------------------| |
E|---------------------------------------------------------------------------| |
                                                                               |
e|---------------------------------------------------------------------------| |
B|---------------------------------------------------------------------------| |
G|--------------7~---5~---------------That's-it-I-guess.---------------------| |
D|----7~--10~----------------------------------------------------------------| |
A|---------------------------------------------------------------------------| |
E|---------------------------------------------------------------------------|/

Josh Elmore's part during the violin intro: (R2)
================================================
e|---------------------------------------------------------------------------|\
B|---------------------------------------------------------------------------| |
G|---5--5---6--6---5--5-----9---10--------(only the first time)5+------------| | x2
D|---2--2---3--3---2--2-----6---7--------------------------------------------| |
A|---------------------------------------------------------------------------| |
E|---------------------------------------------------------------------------|/

Josh Elmore's hell, what has he done?!?!: (R3)
==============================================
     tr   tr   tr   tr   tr
e|---12---13---12---16---17--------------------------------------------------|\
B|---17---18---17---21---22--------------------------------------------------| |
G|------------------------------(16x)-(16x)-(16x)-(8x)-(8x)------------------| |
D|-------------------------------2-----3-----2-----6----7--------------------| | 1st half
A|-------------------------------2-----3-----2-----6----7--------------------| |
E|-------------------------------0-----1-----0-----4----5--------------------| |
     tr   tr   tr   tr   tr                                                    |
e|---12---13---12---16---17--------------------------------------------------| |
B|---17---18---17---21---22--------------------------------------------------| |
G|------------------------------(16x)-(16x)-(16x)-(8x)-----------------------| | 2nd half
D|-------------------------------2-----3-----2-----6-------------------------| |
A|-------------------------------2-----3-----2-----6----7+-------------------| |
E|-------------------------------0-----1-----0-----4-------------------------|/

On the studio version this guitar is layered onto the above riff 
during the tremolo picking part: (R4)
================================================================
e|---------------------------------------|\
B|---------------------------------------| |
G|-(16x)---(16x)---(16x)---(16x)---(16x)-| |
D|---2-------3-------2-------6-------7---| |
A|---------------------------------------| |
E|---------------------------------------|/

"GROSSS REMOOOORSE!@#&^!*@#^@!&*": (R5)
=======================================
e|---------------------------------------------------------------------------|\
B|---------------------------------------------------------------------------| |
G|----------------------3/4\3/4----------------------------------------------| | 4x
D|-2--22--4--44--3--33-----------2--22--4--44--3--33--2----------------2-----| |
A|-2--22--4--44--3--33--1/2\1/2--2--22--4--44--3--33--2----------------2-----| |
E|-0--00--2--22--1--11-----------0--00--2--22--1--11--0-----(4th time)-0-----|/
      xx     xx     xx              xx     xx     xx

The part where Travis murders his throat and where some 
bald guy is crawling on the ground in the music video (1:49): (R6)
==================================================================
     ( 5x )   (  5x  )  ( 5x )    ( 5x )
e|-----------------------------------------|\
B|-----------------------------------------| |
G|-----------------------------------------| | 3x
D|-------9---------12--------7-----8-------| |
A|-----7--------10---------5---------6-----| |
E|---5--------8----------3-------------4---|/
     x x      x x        x x         x x

"YOU THE CONSUMER NOW CONSUMEEEEEEEEEED": (R7)
==============================================
e|---------------------------------------------------------------------------|\
B|---------------------------------------------------------------------------| |
G|-------------------------------------------(16x)--------(16x)--------------| |
D|----------------------------3-2-1------5\4---4-----5\4----4----------------| |
A|--1-----2-3-2-1-----1-----2------------5\4---4-----5\4----4----------------| |
E|----2-1---------2-----2-1---------2----3\2---2-----3\2----2------3+--------| |
      x x x x x x x     x x x   x x x          x            x                  |
e|---------------------------------------------------------------------------| |
B|---------------------------------------------------------------------------| |
G|-------------------------------------------(16x)---------------------------| |
D|----------------------------3-2--------5\4---4-----5\4---------------------| |
A|--1-----2-3-2-1-----1-----2-----1------5\4---4-----5\4---------------------| |
E|----2-1---------2-----2-1---------2----3\2---2-----3\2-----2---------------|/
      x x x x x x x     x x x   x x x          x            (tr)

The weird break thingy: (R7.5A)
==============================
e|---------------------------------------------------------------------------|\
B|---------------------------------------------------------------------------| |
G|--------10\----------------------------------------------------------------| |
D|--2-----9-\------3333-6666-9999-12-----------------------------------------| |
A|--2------------------------------------------------------------------------| |
E|--0------------------------------------------------------------------------|/

                                      2-3-2-6-7
                                      2-3-2-6-7
Play this riff over Riff 3 during the 0-1-0-4-5 chords (Josh does this occasionally): (R8)
======================================================================================
e|----------------------------------------------------------------------------------------|\
B|--------------------------------------------------------------------*****************---| |
G|--(8x)--5555----------(8x)--6666----------(8x)--9999----------(8x)--10101010------------| |
D|---2---------2222------3---------3333------6---------6666------7-------------10101010---| | 
A|----------------------------------------------------------------------------------------| |
E|----------------------------------------------------------------------------------------|/
     x    xxxx xxxx      x    xxxx xxxx      x    xxxx xxxx      x    x x x x  x x x x
                                                              
* = These are tens, not ones and zeros.

(R7.5B)
e|-------------|\
B|-------------| |
G|--------10\--| |
D|--2-----9-\--| |
A|--2----------| |
E|--0----------|/

The solo at the end:
====================
e|---5-7-8-7-5h7p5h7--7--5h7p5h7-------17-19-20-19-17h19p17h19--19-19------------------------|\
B|---------------------------------------------------------------------17~--17-17h18--18~----| |
G|--------------------------------7b9+-------------------------------------------------------| |
D|-------------------------------------------------------------------------------------------| |
A|-------------------------------------------------------------------------------------------| |
E|-------------------------------------------------------------------------------------------| |
                                                                                               |
e|-------------------------------------------------------------------------------------------| |
B|-------------------------------------------------------------------------------------------| |
G|-12\--9\--7\--5~----7\--5\--4\---2+--------------------------------------------------------| |
D|-------------------------------------------------------------------------------------------| |
A|------------------------------(Then he does some minor arpeggio sweeps I can't figure out)-| |
E|-------------------------------------------------------------------------------------------|/
                                                                                                 
e|--12---15-------|\
B|--17---18brb20--| |
G|----------------| | End Solo
D|----------------| |
A|----------------| |
E|----------------|/

===================================
Riff Order in the song:
-----------------------
(R1 + R2) - (R3 + R4) - (R5) - (R6)
(R7) - (R7.5A)
(R3[only the first half] + R4 + R8)
(R5) - (R6) - (R7) - (R7.5B) 
(R2) - (Solo) - (R3) - (R5)
===================================

************************************

| /   slide up
| \   slide down
| h   hammer-on
| p   pull-off
| ~   vibrato
| +   harmonic
| x   Mute note
| b   Bend
| pb  Pre-bend
| br  Bend release
| pbr Pre-bend release
| brb Bend release bend
| tr  Tremolo pick

************************************
Добавлено: 03.01.2016
Другие материалы по этой песне:

Страница создана 03.03.2012
http://primanota.ru/cattle-decapitation/regret-and-the-grave-chords.htm
Привет, Гость.
Предлагаем пройти революционный курс по гитаре.
Подарок от PrimaNota.Ru, забирай!