PrimaNota.ru - самый крупный в мире бесплатный архив песенных текстов, аккордов, табулатур и нот


Cattle Decapitation - Mute Rain - текст песни, таба, видео

Регистрация Запомнить меня
Войти через:  Facebook Google Twitter Vk Yandex Mail.ru

Cattle Decapitation - Mute Rain - текст песни, таба, видео

Печатать
Просмотров: 28
-------------------------------------------------------------------------------
                        Cattle Decapitation - Mute Rain
-------------------------------------------------------------------------------
Tabbed by: Jordan Durland (jtdurland)
E-mail: durlandjordan@gmail.com

Tuning: E Standard (E, A, D, G, B, e)

(0:02 - 0:18)
e|---------------------------------------------------------|
B|---------------------------------------------------------|
G|---------------------------------------------------------|   Play 4x
D|---------------------------------------------------------|
A|---------------------------------------------------------|
E|-8-7-5---7b-5---8-7-5---7b-5---6-5-3---6b---6-5-3---6b---|


(0:18 - 0:22)
e|----------------------------------------------------|
B|----------------------------------------------------|
G|----------------------------------------------------|
D|----------------------------------------------------|
A|-777-555-2---777-555-2---777-555-2---777-555--------|
E|-555-333-0---555-333-0---555-333-0---555-333-10\0---|


(0:22 - 0:30)                   (1)                               (2)  
e|---------------------------------|---------------------------------|--|
B|---------------------------------|---------------------------------|--|
G|---------------------------------|---------------------------------|--|   Play (1) 2x
D|---------------------------------|---------------------------------|--|   Play (2) 2x
A|---------------------------------|---------------------------------|--|
E|-6-6-3-3-5-5-3-3-6-6-3-3-5-5-3-3-|-8-8-5-5-7-7-5-5-8-8-5-5-7-7-5-5-|--|
   • • • • • • • • • • • • • • • •   • • • • • • • • • • • • • • • •

(0:30 - 0:32)
e|-------------------------------------------------|
B|-------------------------------------------------|
G|-------------------------------------------------|
D|-------------------------------------------------|
A|-777-555-2---777-555-2---777-555-2---777-555-2---|
E|-555-333-0---555-333-0---555-333-0---555-333-0---|


(0:32 - 0:40)         (1)                     (2)
e|-----------------------|-----------------------|--|
B|-----------------------|-----------------------|--|
G|---------8-----------8-|---------9-----------9-|--|   Play (1) 2x
D|---------7-----------7-|---------8-----------8-|--|   Play (2) 2x
A|-----------------------|-----------------------|--|
E|-8-7-5-5-----8-7-5-5---|-6-5-3-3-----6-5-3-3---|--|
   • • • •     • • • •     • • • •     • • • •

(0:40 - 0:43)
e|-------------------------------------|
B|-------------------------------------|
G|-------------------------------------|
D|-------------------------------------|
A|-777-555-2---777-555-2---777-555-2---|
E|-555-333-0---555-333-0---555-333-0---|


************************************

| /   slide up
| \   slide down
| h   hammer-on
| p   pull-off
| •   palm mute
| ~   vibrato
| +   harmonic
| x   Mute note
| b   Bend
| pb  Pre-bend
| br  Bend release
| pbr Pre-bend release
| brb Bend release bend

************************************
Добавлено: 10.05.2016
Другие материалы по этой песне:

Страница создана 29.02.2012
http://primanota.ru/cattle-decapitation/mute-rain-chords.htm
Привет, Гость.
Предлагаем пройти революционный курс по гитаре.
Подарок от PrimaNota.Ru, забирай!