PrimaNota.ru - самый крупный в мире бесплатный архив песенных текстов, аккордов, табулатур и нот


Cathy Davey - The Collector - таба, видео

Регистрация Запомнить меня
Войти через:  Facebook Google Twitter Vk Yandex Mail.ru

Cathy Davey - The Collector - таба, видео

Печатать
Просмотров: 80
Artist: Cathy Davey
Song: The Collector
From the album, 'Tales of Silversleeve'

Tabbed by: L.A Rai 

C#m                     Bm    C
All mine, when the body wakes up
C#m                     C     Bm
All mine, when the body falls down
Bm                                 Am  A#m
You won't sleep when you lie with me
Bm                                    C
Knuckle and bone come rattle at the window
C#m                Bm  C
All mine, gall and liver
C#m                    C  Bm
All mine, bony rib and marrow
Bm                            Am  A#m
All the dreams you long to keep
Bm                                       C
Were part of the deal when you came to borrow


F#
The collector is collecting
                  Em
And delivering to me
                           F#
Oh, you think we've got it all
                         Em F#
But there's no guarantee

Bm  Am  A#m
All mine, 
Bm   C  C#m
all mine

(Verse & Chorus 2 same as before)

C#m     Bm   C
All mine, the song your mother wrote you
All mine, everything of value
All hope you lay aside
Saved for the day no hope lies in you
All mine, joy and libido
Mine mine, plans for tomorrow
The heart you smuggled away
That beat so fast when we did our little handshake

The collector is collecting
And delivering to me
Oh, you think we've got it all
But there's no guarantee
All mine, all mine

(Guitar solo)

C#m
You won't sleep when you lie with me
                                      C
Body will be gone but the mind won't follow
Bm
This heart you long to keep
Knuckle and bone come rattle at the window

Guitar solo:

e|-------------------------------------------------------------------------|
B|-7b---7b-7br-7-5-7-8---7b---7b-7br-7-5-7-5-------------------------------|
G|----6--------------------6-----------------------------------------------|
D|-------------------------------------------------------------------------|
A|-------------------------------------------------------------------------|
E|-------------------------------------------------------------------------|

e|-------------------------------------------------------------------------|
B|-------------------------------------------------------------------------|
G|-7-6--9-9--6--7-7-7-6-6--9-9--11-9-11-11/13------------------------------|
D|-------------------------------------------------------------------------|
A|-------------------------------------------------------------------------|
E|-------------------------------------------------------------------------|

e|-------------------------------------------------------------------------|
B|-12b-9--12b-12-12-9-12-13--14b-9-12b-12-12-9-12-9------------------------|
G|-------------------------------------------------------------------------|
D|-------------------------------------------------------------------------|
A|-------------------------------------------------------------------------|
E|-------------------------------------------------------------------------|

e|-------------------------------12-14-14b---------------------------------|
B|----9-10-10/12-10--14-12-15-14-------------------------------------------|
G|-11----------------------------------------------------------------------|
D|-------------------------------------------------------------------------|
A|-------------------------------------------------------------------------|
E|-------------------------------------------------------------------------|

If you get a chance check out my original music:

http://soundcloud.com/laura-rai

Thanks :)
Добавлено: 25.09.2013
Вам также может быть интересно:
Другие материалы по этой песне:
  • Аккорды и текст

Страница создана 25.09.2013
http://primanota.ru/cathy-davey/the-collector-chords.htm
Привет, Гость.
Предлагаем пройти революционный курс по гитаре.
Подарок от PrimaNota.Ru, забирай!