PrimaNota.ru - самый крупный в мире бесплатный архив песенных текстов, аккордов, табулатур и нот


Catherine - Thou Art A Villian - таба, видео

Регистрация Запомнить меня
Войти через:  Facebook Google Twitter Vk Yandex Mail.ru

Catherine - Thou Art A Villian - таба, видео

Печатать
Просмотров: 97
                               THOU ART A VILLIAN
                            As recorded by Catherine
                       (From the 2008 Album THE NATURALS)

Music by Catherine
Transcribed by Patsyxcore

Gtr I (C G C F A D) - 'Right'
Gtr II (C G C F A D) - 'Left'
Gtr III (C G C F A D) - 'Pickslide'
Gtr IV (C G C F A D) - 'Pickslide'

 "Just try, just try this..."
  Q=178
  Gm
 4/4
  Gtr I
   E  E  E  E  E  E  E  E    E  E  E  E  E  E  E  E
|-------------------------|-------------------------|
|-------------------------|-------------------------|
|-------------------------|-------------------------|
|--8--8--8--8--8--8--8--8-|--8--8--8--8--8--8--8--8-|
|-10-10-10-10-10-10-10-10-|-10-10-10-10-10-10-10-10-|
|-------------------------|-------------------------|
|
| Gtr II
|  W                         W
|-------------------------|-------------------------|
|-------------------------|-------------------------|
|-------------------------|-------------------------|
|-------------------------|-------------------------|
|-------------------------|-------------------------|
|-------------------------|-------------------------|


  Bb       Am       Gm      N.C.
   E  E  E  E  E  E  E  E    E   E  E  E  E  E  E  E
|-------------------------|--------------------------||
|-------------------------|--------------------------||
|-------------------------|-10s=12-12-12-12-12-12-12-||
|-12-12-12-10-10-10--8--8-|--------------------------||
|-13-13-13-12-12-12-10-10-|--------------------------||
|-------------------------|--------------------------||
|
|              <
|  H           H            +W
|-------------------------|--------------------------||
|-------------------------|--------------------------||
|-------------------------|--------------------------||
|--------------5----------|-(5)----------------------||
|--------------5----------|-(5)----------------------||
|--------------5----------|-(5)----------------------||


 "Time!"
  $
  Eb5
   Q     E  Q     E  E  E    Q     E  Q     E  E  E
|-------------------------|-------------------------|
|-------------------------|-------------------------|
|-------------------------|-------------------------|
|--1-----1--1-----1--1--1-|--1-----1--1-----1--1--1-|
|--1-----1--1-----1--1--1-|--1-----1--1-----1--1--1-|
|--1-----1--1-----1--1--1-|--1-----1--1-----1--1--1-|
|
|  E  E  E  E  E  E  E  E    E  E  E  E  E  E  E  E
|-------------------------|-------------------------|
|-15-------15-------------|-15-------------------15-|
|----15-------15-------15-|-------15-15----15h17----|
|-------17-------17-17----|----17-------17----------|
|-------------------------|-------------------------|
|-------------------------|-------------------------|


  G5
                                       PM----|
   Q     E  Q     E  E E    Q    Q     S S S S  Q
|------------------------|----------------------------|
|------------------------|----------------------------|
|------------------------|----------------------------|
|--5-----5--5-----5--5-5-|--5----5--------------5-----|
|--5-----5--5-----5--5-5-|--5----5-----5-5-5-5--5-----|
|--5-----5--5-----5--5-5-|--5----5-----5-5-5-5--5-----|
|
|  E  E  E  E  E  E  Q      E  Q    E  Q        E  E
|------------------------|----------------------------|
|-15-------15------------|------------------------15--|
|----15-------15-15------|-15------15----------15-----|
|-------17----------19---|----19------19--------------|
|------------------------|----------------------------|
|------------------------|----------------------------|


  Eb5
   Q     E  Q     E  E  E    Q     E  Q     E  E  E
|-------------------------|-------------------------|
|-------------------------|-------------------------|
|-------------------------|-------------------------|
|--1-----1--1-----1--1--1-|--1-----1--1-----1--1--1-|
|--1-----1--1-----1--1--1-|--1-----1--1-----1--1--1-|
|--1-----1--1-----1--1--1-|--1-----1--1-----1--1--1-|
|
|  E  E  E  E  E  E  E  E    E  E  E  E  E  E  E  E
|-------------------------|-------------------------|
|-15-------15-------------|-15-------------------15-|
|----15-------15-------15-|-------15-15----15h17----|
|-------17-------17-17----|----17-------17----------|
|-------------------------|-------------------------|
|-------------------------|-------------------------|


  N.C.
  PM|     PM|       PM|
  E E E E E E E E   E E E E  E  E  E  E
|-----------------|----------------------|
|-----------------|----------------------|
|-----------------|----------------------|
|-----5-5-----5-5-|-----5-5-12-10----10--|
|-----------------|---------------10-----|
|-3-3-----3-3-----|-3-3------------------|
|
| PM|     PM|       PM|
| E E E E E E E E   E E E E  E  E  Q
|-----------------|----------------------|
|-----------------|----------------------|
|-----------------|----------------------|
|-----5-5-----5-5-|-----5-5--8--7--------|
|-----------------|----------------6-----|
|-3-3-----3-3-----|-3-3------------------|


  Gm
   Q   E  Q     E    E     E    Q   E  Q     E    E     E
|----------------------------|----------------------------|
|----------------------------|----------------------------|
|----------------------------|----------------------------|
|--8---8--8-----8----8-----8-|--8---8--8-----8----8-----8-|
|--5---5--5-----5----5-----5-|--5---5--5-----5----5-----5-|
|--5---5--5-----5----5-----5-|--5---5--5-----5----5-----5-|
|
|               |---3---|                    |---3---|
|  Q   E  E  E  E  E    E  E    Q   E  E  E  E  E    E  E
|----------------------------|----------------------------|
|----------------------------|----------------------------|
|-12--12-10-12-14h15p==14-10-|-12--12-10-12-14h15p==14-10-|
|----------------------------|----------------------------|
|----------------------------|----------------------------|
|----------------------------|----------------------------|


                                            Bb5
   Q   E  Q     E    E     E    Q   E  Q     E    E     E
|----------------------------|----------------------------|
|----------------------------|----------------------------|
|----------------------------|----------------------------|
|--8---8--8-----8----8-----8-|--8---8--8-----8----8-----8-|
|--5---5--5-----5----5-----5-|--5---5--5-----8----8-----8-|
|--5---5--5-----5----5-----5-|--5---5--5-----8----8-----8-|
|
|               |---3---|                    |---3---|
|  Q   E  E  E  E  E    E  E    Q   E  E  E  E  E    E  E
|----------------------------|----------------------------|
|----------------------------|----------------------------|
|-12--12-10-12-14h15p==14-10-|-12--12-10-12-14h15p==14-10-|
|----------------------------|----------------------------|
|----------------------------|----------------------------|
|----------------------------|----------------------------|


  Eb5
   Q   E  Q     E    E     E    Q   E  Q     E    E     E
|----------------------------|----------------------------|
|----------------------------|----------------------------|
|----------------------------|----------------------------|
|--1---1--1-----1----1-----1-|--1---1--1-----1----1-----1-|
|--1---1--1-----1----1-----1-|--1---1--1-----1----1-----1-|
|--1---1--1-----1----1-----1-|--1---1--1-----1----1-----1-|
|
|               |---3---|                    |---3---|
|  Q   E  E  E  E  E    E  E    Q   E  E  E  E  E    E  E
|----------------------------|----------------------------|
|----------------------------|----------------------------|
|-12--12-10-12-14h15p==14-10-|-12--12-10-12-14h15p==14-10-|
|----------------------------|----------------------------|
|----------------------------|----------------------------|
|----------------------------|----------------------------|


                             To Coda
  N.C.
  PM|     PM|       PM|
  E E E E E E E E   E E E E  E  E Q
|-----------------|--------------------||
|-----------------|--------------------||
|-----------------|--------------------||
|-----5-5-----5-5-|-----5-5--8--7-5----||
|-----------------|--------------------||
|-3-3-----3-3-----|-3-3----------------||
|
| PM|     PM|       PM|
| E E E E E E E E   E E E E  E  E Q
|-----------------|--------------------||
|-----------------|--------------------||
|-----------------|--------------------||
|-----5-5-----5-5-|-----5-5-12-10-8----||
|-----------------|--------------------||
|-3-3-----3-3-----|-3-3----------------||


 "They always asked me..."
  G5 N.C.                            G5 N.C.
     PM  PM  PM    PM  PM  PM           PM  PM  PM    PM    PM  PM
  Q  E E E E E E   E E E E E E E E   Q  E E E E E E   E E   E E E E E E
|----------------|-----------------|----------------|-------------------|
|----------------|-----------------|----------------|-------------------|
|----------------|-----------------|----------------|-------------------|
|-5--------------|-----------------|-5--------------|-------------------|
|-5----5---5---5-|---5---5---8-6-5-|-5----5---5---5-|---5-----5---8-6-5-|
|-5--5---5---5---|-5---5---5-------|-5--5---5---5---|-5-----5---5-------|
|
| Q  E E E E E E   E E E E E E E E   Q  E E E E E E   E S S E E E E E E
|----------------|-----------------|----------------|-------------------|
|----------------|-----------------|----------------|-------------------|
|------7---7---7-|---7---7---7-7-7-|------7---7---7-|-7-7s8-7-5---5-----|
|-5--5---5---5---|-5---5---5-------|-5--5---5---5---|-----------8---8-7-|
|-5--------------|-----------------|-5--------------|-------------------|
|-5--------------|-----------------|-5--------------|-------------------|


  N.C.
     PM  PM  PM    PM  PM  PM
  Q  E E E E E E   E E E E E E E E
|----------------|-----------------|
|----------------|-----------------|
|----------------|-----------------|
|------8---8---8-|---8---8---8-8-8-|
|-6--6---6---6---|-6---6---6-------|
|----------------|-----------------|
|
|    PM  PM  PM    PM  PM  PM
| Q  E E E E E E   E E E E E E E E
|----------------|-----------------|
|----------------|-----------------|
|------7---7---7-|---7---7---7-7-7-|
|----------------|-----------------|
|-6--6---6---6---|-6---6---6-------|
|----------------|-----------------|


     PM   PM   PM     PM------------------|
  Q  E  E E  E E  E   E  E  E  E  E  E  E  E
|-------------------|-------------------------|
|-------------------|-------------------------|
|-------------------|-------------------------|
|------10---10---10-|-------------------------|
|-8--8----8----8----|-8-----------------------|
|-------------------|---10-10-10-10--8--8--7--|
|
|    PM   PM   PM     PM------------------|
| Q  E  E E  E E  E   E  E  E  E  E  E  E  E
|-------------------|-------------------------|
|-------------------|-------------------------|
|-------7----7----7-|-------------------------|
|-------------------|-------------------------|
|-8--8----8----8----|-8-13-13-13-13-12-12-12--|
|-------------------|-------------------------|


  G5 N.C.
     PM  PM  PM    PM   PM   PM
  Q  E E E E E E   E  E E  E E  E  E  E
|----------------|----------------------|
|----------------|----------------------|
|----------------|----------------------|
|-5--------------|----------------------|
|-5----5---5---5-|----5----5----8--6--5-|
|-5--5---5---5---|-5----5----5----------|
|
| Q  E E E E E E   E  E E  E E  E  E  E
|----------------|----------------------|
|------8---8---8-|---10---10---10-10-10-|
|----------------|----------------------|
|-5--5---5---5---|-5----5----5----------|
|-5--------------|----------------------|
|-5--------------|----------------------|


  G5 N.C.
     PM   PM   PM     PM   PM   PM
  Q  E  E E  E E  E   E  E E  E E  E  E  E
|-------------------|-----------------------|
|-------------------|-----------------------|
|-------------------|-----------------------|
|-5-----------------|-----------------------|
|-5-----5----5----5-|----5----5----8--6--5--|
|-5--5----5----5----|-5----5----5-----------|
|
| Q  E  E E  E E  E   E  E E  E E  E  E  E
|-------------------|-----------------------|
|------10---10---10-|---10---10---13-11-10--|
|-------------------|-----------------------|
|-5--5----5----5----|-5----5----5-----------|
|-5-----------------|-----------------------|
|-5-----------------|-----------------------|


  N.C.
     PM  PM  PM    PM  PM  PM
  Q  E E E E E E   E E E E E E E E
|----------------|-----------------|
|----------------|-----------------|
|----------------|-----------------|
|------8---8---8-|---8---8---8-8-8-|
|-6--6---6---6---|-6---6---6-------|
|----------------|-----------------|
|
|    PM  PM  PM    PM  PM  PM
| Q  E E E E E E   E E E E E E E E
|----------------|-----------------|
|----------------|-----------------|
|------7---7---7-|---7---7---7-7-7-|
|----------------|-----------------|
|-6--6---6---6---|-6---6---6-------|
|----------------|-----------------|


     PM   PM   PM     PM------------------|
  Q  E  E E  E E  E   E  E  E  E  E  E  E  E
|-------------------|-------------------------|
|-------------------|-------------------------|
|-------------------|-------------------------|
|------10---10---10-|-------------------------|
|-8--8----8----8----|-8-----------------------|
|-------------------|---10-10-10-10--8--8--7--|
|
|    PM   PM   PM     PM------------------|
| Q  E  E E  E E  E   E  E  E  E  E  E  E  E
|-------------------|-------------------------|
|-------------------|-------------------------|
|-------7----7----7-|-------------------------|
|-------------------|-------------------------|
|-8--8----8----8----|-8-13-13-13-13-12-12-12--|
|-------------------|-------------------------|


 Interlude
  N.C.
   E E E  E E E  E E   E  E E  E  E E  E  E
|--------------------|----------------------|
|--------------------|----------------------|
|--------------------|----------------------|
|-----------8--------|------------8---------|
|----5----5----------|----5----5------------|
|--5---5------8--7-3-|-5----5-------8--7--3-|
|
|  E E E  E E E  E E   E  E E  E  E E  E  E
|--------------------|----------------------|
|--------------------|----------------------|
|-12p0h8-12p0h7-12p0h|=5-12p0h11-12p0h11h12-|
|--------------------|----------------------|
|--------------------|----------------------|
|--------------------|----------------------|


   E E E  E E E  E E   E  E E  E  E E  E  E
|--------------------|-----------------------||
|--------------------|-----------------------||
|--------------------|-----------------------||
|-----------8--------|------------8----------||
|----5----5----------|----5----5-------------||
|--5---5------8--7-3-|-5----5-------8--7--3--||
|
|  E E E  E E E  E E   E  E E  E  E E  E  E
|--------------------|-----------------------||
|--------------------|-----------------------||
|-12p0h8-12p0h7-12p0h|=5-12p0h11-12p0h11h12--||
|--------------------|-----------------------||
|--------------------|-----------------------||
|--------------------|-----------------------||


   "Look! I'm melting!"
    G5
                                     PM--------------|
                                     |-------6-------|
     Q   H.               Q    Q     E E   E  E E    E
||----------------------|------------------------------|
||o---------------------|------------------------------|
||----------------------|------------------------------|
||---5------------------|-5----------------------------|
||o--5------------------|-5----------5-5---5--5-5----5-|
||---5------------------|-5----------5-5---5--5-5----5-|
|
|    E E E   E E E  E E   E  E E  E  E   E    E    E
||----------------------|------------------------------|
||o---------------------|------------------------------|
||--12p0h8--12p0h7-12p0h|=5-12p0h11-12p==0h==11h==12---|
||----------------------|------------------------------|
||o---------------------|------------------------------|
||----------------------|------------------------------|


                                       Eb5F5
                                     PM---|
   Q   H.               Q    E  Q    E  E  E
|---------------------|-----------------------|
|---------------------|-----------------------|
|---------------------|-----------------------|
|--5------------------|-5-------5-------------|
|--5------------------|-5-------5-------1--3--|
|--5------------------|-5-------5-------1--3--|
|
|  E E E   E E E  E E   E  E E  E  E E  E  E
|---------------------|-----------------------|
|---------------------|-----------------------|
|-12p0h8--12p0h7-12p0h|=5-12p0h11-12p0h11h12--|
|---------------------|-----------------------|
|---------------------|-----------------------|
|---------------------|-----------------------|


  G5
                                  PM--------------|
                                  |-------6-------|
   Q   Q    Q    Q     H          E E   E  E E    E
|--------------------|------------------------------|
|--------------------|------------------------------|
|--------------------|------------------------------|
|--5--------5--------|------------------------------|
|--5--------5--------|------------5-5---5--5-5----5-|
|--5--------5--------|------------5-5---5--5-5----5-|
|
|  E E E  E E E  E E   E  E E  E  E   E    E    E
|--------------------|------------------------------|
|--------------------|------------------------------|
|-12p0h8-12p0h7-12p0h|=5-12p0h11-12p==0h==11h==12---|
|--------------------|------------------------------|
|--------------------|------------------------------|
|--------------------|------------------------------|


                                       Eb5F5
                                        PM|
   Q   H.               Q    E  Q    E  E  E
|---------------------|-------------------------||
|---------------------|------------------------o||
|---------------------|-------------------------||
|--5------------------|-5-------5---------------||
|--5------------------|-5-------5-------1--3---o||
|--5------------------|-5-------5-------1--3----||
|
|  E E E   E E E  E E   E  E E  E  E E  E  E
|---------------------|-------------------------||
|---------------------|------------------------o||
|-12p0h8--12p0h7-12p0h|=5-12p0h11-12p0h11h12----||
|---------------------|-------------------------||
|---------------------|------------------------o||
|---------------------|-------------------------||


 Fill
  Gm
   E  E  E  E  E  E  E  E    E  E  E  E  E  E  E  E
|-------------------------|-------------------------|
|-------------------------|-------------------------|
|-------------------------|-------------------------|
|--8--8--8--8--8--8--8--8-|--8--8--8--8--8--8--8--8-|
|-10-10-10-10-10-10-10-10-|-10-10-10-10-10-10-10-10-|
|-------------------------|-------------------------|
|
|  >
|  W                         W
|-------------------------|-------------------------|
|-------------------------|-------------------------|
|-------------------------|-------------------------|
|--3----------------------|-------------------------|
|--3----------------------|-------------------------|
|--3----------------------|-------------------------|


                                         D.S. al Coda
  Bb       Am       Gm      N.C.
   E  E  E  E  E  E  E  E    E   E  E  E  E  E  E  E
|-------------------------|---------------------------||
|-------------------------|---------------------------||
|-------------------------|-10s=12-12-12-12-12-12-12--||
|-12-12-12-10-10-10--8--8-|---------------------------||
|-13-13-13-12-12-12-10-10-|---------------------------||
|-------------------------|---------------------------||
|
|              <
|  H           H            +W
|-------------------------|---------------------------||
|-------------------------|---------------------------||
|-------------------------|---------------------------||
|--------------5----------|-(5)-----------------------||
|--------------5----------|-(5)-----------------------||
|--------------5----------|-(5)-----------------------||


 "Fill me with another..."
  &
  G5
                             Gtr III
                             TP
  Q  +Q    H      W          W
|---------------|----------|-------||
|---------------|----------|-------||
|---------------|----------|-------||
|-5--(5)\-------|----------|-x\----||
|-5--(5)\-------|----------|-x\----||
|-5--(5)\-------|----------|-x\----||
|
|                            Gtr IV
|                            TP
| Q  +Q    H      W          W
|---------------|----------|-------||
|---------------|----------|-------||
|---------------|----------|-------||
|-5--(5)\-------|----------|-x\----||
|-5--(5)\-------|----------|-x\----||
|-5--(5)\-------|----------|-x\----||


   "They say this time it's..."
    N.C.
    Gtr I
    PM|   PM  PM      PM|   PM  PM      PM|     PM    PM      PM|   PM  PM
    E E E E E E E E   E E E E E E E E   E E E   E   E E E E   E E E E E E E E
||------------------|-----------------|---------------------|-----------------|
||o-----------------|-----------------|---------------------|-----------------|
||------------------|-----------------|-----------------6-6-|-------------6-6-|
||--------------8-8-|-------------8-8-|---------------------|-----------------|
||o-5---5---6-------|-----5---6-------|-----5-------6-------|-----5---6-------|
||--5-5---5---5-----|-5-5---5---5-----|-5-5-----5-----5-----|-5-5---5---5-----|
|
|   Gtr II
|   PM|   PM  PM      PM|   PM  PM      PM|                   PM|   PM  PM
|                                           |--3--|
|   E E E E E E E E   E E E E E E E E   E E E E   E E E E E   E E E E E E E E
||------------------|-----------------|---------------------|-----------------|
||o-----------------|-----------------|---------------------|-----------------|
||--------------7-7-|-------------7-7-|---------------------|-----------------|
||------3---5-------|-----3---5-------|-----4h5p==4-----7-7-|-----3---4---7-7-|
||o-5---------------|-----------------|-------------5p4-----|-----------------|
||--5-5---5---5-----|-5-5---5---5-----|-5-5-----------------|-5-5---5---5-----|


  Eb5                                 F5
   PM---------------------------------------------------------------|
   q   q   q   q     q   q   q   q     q   q   q   q     q   q   q   q
|-----------------|-----------------|-----------------|-------------------||
|-----------------|-----------------|-----------------|------------------o||
|-----------------|-----------------|-----------------|-------------------||
|--1---1---1---1--|--1---1---1---1--|--3---3---3---3--|--3---3---3---3----||
|--1---1---1---1--|--1---1---1---1--|--3---3---3---3--|--3---3---3---3---o||
|--1---1---1---1--|--1---1---1---1--|--3---3---3---3--|--3---3---3---3----||
|
|  Q   Q   Q   Q     Q   Q   Q   Q     Q   Q   Q   Q     Q   Q   Q   Q
|-----------------|-----------------|-----------------|-------------------||
|-----------------|-----------------|-----------------|------------------o||
|-15--15--15--15--|-15--15--15--15--|-14--14--14--14--|-11--11--11--11----||
|--x---x---x---x--|--x---x---x---x--|--x---x---x---x--|--x---x---x---x----||
|-13--13--13--13--|-13--13--13--13--|-12--12--12--12--|--9---9---9---9---o||
|-----------------|-----------------|-----------------|-------------------||


    N.C.
     E    E    E  E E  E  E    E       E    E    E  E E  E  E    E
||----------------------------------|---------------------------------|
||o---------------------------------|---------------------------------|
||----------------------------------|---------------------------------|
||------------------8---------------|-----------------8---------------|
||o-------5-------5-----------------|-------5-------5-----------------|
||---5---------5-------8--7----3----|--5---------5-------8--7----3----|
|
|    |---3---|            |---3---|    |---3---|            |---3---|
|    E  E    E E  E E  E  E  E    E    E  E    E E  E E  E  E  E    E
||----------------------------------|---------------------------------|
||o---------------------------------|---------------------------------|
||-------------7----8---------------|------------7----8---------------|
||----------------------------------|---------------------------------|
||o-10h13p==10---10---10-10h13p==10-|-10h13p==10---10---10-10h13p==10-|
||----------------------------------|---------------------------------|


   E    E    E  E E  E  E    E       E    E    E  E E  E  E    E
|---------------------------------|------------------------------------||
|---------------------------------|-----------------------------------o||
|---------------------------------|------------------------------------||
|-----------------8---------------|-----------------8------------------||
|-------5-------5-----------------|-------5-------5-------------------o||
|--5---------5-------8--7----3----|--5---------5-------8--7----3-------||
|
|  |---3---|            |---3---|    |---3---|            |---3---|
|  E  E    E E  E E  E  E  E    E    E  E    E E  E E  E  E  E    E
|---------------------------------|------------------------------------||
|---------------------------------|-----------------------------------o||
|------------7----8---------------|------------7----8------------------||
|---------------------------------|------------------------------------||
|-10h13p==10---10---10-10h13p==10-|-10h13p==10---10---10-10h13p==10---o||
|---------------------------------|------------------------------------||


 Interlude II
  Q=151
  G5
  W                   +W
|-------------------|-----------------|
|-------------------|-----------------|
|-------------------|-----------------|
|-5-----------------|-(5)-------------|
|-5-----------------|-(5)-------------|
|-5-----------------|-(5)-------------|
|
| Q  S S +E  E E Q     E E E E +H
|-------------------|-----------------|
|-------------------|-----------------|
|-------------------|-----------------|
|-5--7s8-(8)-8-7-5--|--5s3-3s5-(5)----|
|-------------------|-----------------|
|-------------------|-----------------|


  +W                    +W
|---------------------|-----------------------|
|---------------------|-----------------------|
|---------------------|-----------------------|
|-(5)-----------------|-(5)-------------------|
|-(5)-----------------|-(5)-------------------|
|-(5)-----------------|-(5)-------------------|
|
|  Q   S S +E  E Q  E    Q.     S S +E  E E E
|---------------------|-----------------------|
|---------------------|-----------------------|
|---------------------|-----------------------|
|--5---7s8-(8)-8-7--5-|-[7]b9---7s8-(8)-7-5-3-|
|---------------------|-----------------------|
|---------------------|-----------------------|


  Eb5                                   F5              N.C.
  W                   +W                W                W
|-------------------|-----------------|---------------|-----------------|
|-------------------|-----------------|---------------|-----------------|
|-------------------|-----------------|---------------|-----------------|
|-1-----------------|-(1)-------------|-3-------------|-----------------|
|-1-----------------|-(1)-------------|-3-------------|-----------------|
|-1-----------------|-(1)-------------|-3-------------|-/4--------------|
|
| Q  S S +E  E E Q     E E E E +H       Q  E E E Q  E    E E E Q.   E E
|-------------------|-----------------|---------------|-----------------|
|-------------------|-----------------|---------------|-----------------|
|-------------------|-----------------|---------------|-----------------|
|-1--7s8-(8)-8-7-5--|--5s3-3s5-(5)----|-0--8-0-8-7--0-|--8-0-8-7----5-3-|
|-------------------|-----------------|---------------|-----------------|
|-------------------|-----------------|---------------|-----------------|


  N.C.
   E  E  E  E  E  E  E  E    E  E  E  E   E  E  E  E
|-------------------------|--------------------------|
|-------------------------|--------------------------|
|-12-12-12-12-12-12-14-14-|-14-14-14-14--15-15-14-14-|
|--x--x--x--x--x--x--x--x-|--x--x--x--x---x--x--x--x-|
|-10-10-10-10-10-10-12-12-|-12-12-12-12--13-13-12-12-|
|-------------------------|--------------------------|
|
|  Q     E  E  E  Q     E    E  E  E  Q.        E  E
|-------------------------|--------------------------|
|-------------------------|--------------------------|
|-------------------------|--------------------------|
|--5-----8--5--8--7-----5-|--8--5--8--7---------5--3-|
|-------------------------|--------------------------|
|-------------------------|--------------------------|


   E  E  E  E  E  E  E  E    E  E  E  E   E  E  E  E
|-------------------------|---------------------------|
|-------------------------|---------------------------|
|-19-19-19-19-19-19-17-17-|-17-17-17-17--15-15-15-15--|
|--x--x--x--x--x--x--x--x-|--x--x--x--x---x--x--x--x--|
|-17-17-17-17-17-17-15-15-|-15-15-15-15--13-13-13-13--|
|-------------------------|---------------------------|
|
|  Q     E  E  E  Q     E    E  E  E  Q.        E  E
|-------------------------|---------------------------|
|-------------------------|---------------------------|
|-------------------------|---------------------------|
|--5-----8--5--8--7-----5-|--8--5--8--7---------5--3--|
|-------------------------|---------------------------|
|-------------------------|---------------------------|


  N.C.
   E  E  E  E  E  E  E  E    E  E  E  E   E  E  E  E
|-------------------------|--------------------------|
|-------------------------|--------------------------|
|-12-12-12-12-12-12-14-14-|-14-14-14-14--15-15-14-14-|
|--x--x--x--x--x--x--x--x-|--x--x--x--x---x--x--x--x-|
|-10-10-10-10-10-10-12-12-|-12-12-12-12--13-13-12-12-|
|-------------------------|--------------------------|
|
|  Q     E  E  E  Q     E    E  E  E  Q.        E  E
|-------------------------|--------------------------|
|-------------------------|--------------------------|
|--------3-----3--2-------|--3-----3--2--------------|
|--1--------1-----------1-|-----1---------------5--3-|
|-------------------------|--------------------------|
|-------------------------|--------------------------|


   E  E  E  E  E  E  E  E    E  E  E  E  E  E   E  E
|-------------------------|---------------------------|
|-------------------------|---------------------------|
|-19-19-19-19-19-19-17-17-|-17-17-17-17-15-15--15-15--|
|--x--x--x--x--x--x--x--x-|--x--x--x--x--x--x---x--x--|
|-17-17-17-17-17-17-15-15-|-15-15-15-15-13-13--13-13--|
|-------------------------|---------------------------|
|
|  PM|      PM|      PM|        PM    PM
|  E  E  E  E  E  E  E  E    E  E  E  E  E  Q.
|-------------------------|---------------------------|
|-------------------------|---------------------------|
|-------------------------|---------------------------|
|--------8--------8-------|--8-----8-----8p=7---------|
|-------------------------|---------------------------|
|--4h=5-----4h=5-----4h=5-|-----4-----4---------------|


  G5                                  F5
                              PM--|                               PM--------|
  Q  +Q    Q  Q    +Q    Q.   E E E   Q  +Q    Q  Q    +Q    Q.   S S S S S S
|----------------|------------------|----------------|------------------------|
|----------------|------------------|----------------|------------------------|
|----------------|------------------|----------------|------------------------|
|-5--(5)\-----5--|-(5)\-------------|-3--(3)\-----3--|-(3)\-------------------|
|-5--(5)\-----5--|-(5)\-------5---5-|-3--(3)\-----3--|-(3)\-------3-3-3-3-3-3-|
|-5--(5)\-----5--|-(5)\-------5---5-|-3--(3)\-----3--|-(3)\-------3-3-3-3-3-3-|
|
|                             PM--|
| Q  +Q    Q  Q    +Q    Q.   E E E   Q  +Q    Q  Q    +Q    H.
|----------------|------------------|----------------|------------------------|
|----------------|------------------|----------------|------------------------|
|----------------|------------------|----------------|------------------------|
|-5--(5)\-----5--|-(5)\-------------|-7--(7)\-----7--|-(7)\-------------------|
|-5--(5)\-----5--|-(5)\-------5---5-|-x-----------x--|------------------------|
|-5--(5)\-----5--|-(5)\-------5---5-|-7--(7)\-----7--|-(7)\-------------------|


  Eb5                        N.C.
                              PM----------------------
  Q  H    E E   +W            E  E  E  E  E  E  E  E
|-------------|------------|-------------------------|
|-------------|------------|-------------------------|
|-------------|------------|-------------------------|
|-1-------1-1-|-(1)--------|-------------------------|
|-1-------1-1-|-(1)--------|-------------------------|
|-1-------1-1-|-(1)--------|--3--3--3--3--3--3--3--3-|
|
| Q  H    E E   +W            E  E  E  E  E  E  E  E
|-------------|------------|-------------------------|
|-------------|------------|-------------------------|
|-------------|------------|-11-11-11-11-11-15-15-15-|
|-8-------5-5-|-(5)--------|--x--x--x--x--x--x--x--x-|
|-x-------x-x-|------------|--9--9--9--9--9-13-13-13-|
|-8-------5-5-|-(5)--------|-------------------------|


 ----------------------|
   E  E  E  E  E  E  E  E
|--------------------------||
|--------------------------||
|--------------------------||
|--------------------------||
|--------------------------||
|--4--4--4--4--4--4--4--4--||
|
|  E  E  E  E  E  E  E  E
|--------------------------||
|--------------------------||
|-15-14-14-14-14-14-14-14--||
|--x--x--x--x--x--x--x--x--||
|-13-12-12-12-12-12-12-12--||
|--------------------------||


 "There's no heroes..."
  G5 N.C.      G5   N.C.     G5      F5 N.C.    F5   N.C.     F5
                             PM--|                            PM--|
  Q   E E  E E Q    E E E Q  E E E   Q  E E E E Q    E E E Q  E E E
|-----------------|----------------|---------------|-----------------|
|-----------------|----------------|----6---6-4----|-4---4-3---------|
|----10---10-8----|-8---8-7--------|---------------|-----------------|
|-5------------5--|----------------|-3----------3--|-----------------|
|-5------------5--|----------5---5-|-3----------3--|----------3---3--|
|-5------------5--|----------5---5-|-3----------3--|----------3---3--|
|
| Q   E E  E E Q    E E E Q  E E E   Q  E E E E Q    E E E Q  E E E
|-----------------|----------------|---------------|-----------------|
|-----------------|----------------|----6---6-4----|-4---4-3---------|
|----10---10-8----|-8---8-7--------|---------------|--------------3--|
|-5------------5--|----------5---7-|-7----------7--|----------7---x--|
|-x------------x--|----------x---x-|-x----------x--|----------x---1--|
|-5------------5--|----------5---7-|-7----------7--|----------7------|


  Eb5N.C.    Eb5  N.C.     Eb5     N.C.
                           PM---------------------------------------|
  Q  E E E E Q    E E E Q  E E E   E E E E E E E E   E E E E E E  E E
|----1---1------|----------------|-----------------|-------------------||
|----------4----|-4---4-3--------|-----------------|-------------------||
|---------------|----------------|-----------------|-------------------||
|-1----------1--|----------------|-----------------|-------------------||
|-1----------1--|----------1---1-|-----------------|-------------------||
|-1----------1--|----------1---1-|-3-3-3-3-3-3-3-3-|-4-4-4-4-4-4--4-4--||
|
|                          PM--------|   PM|   PM|     PM  PM
| Q  E E E E Q    E E E Q  E E E   E E E E E E E E   E E E E E Q.
|----1---1------|----------------|-----------------|-------------------||
|----------4----|-4---4-3--------|-----------------|-------------------||
|-3----------3--|----------------|-----------------|-------------------||
|-x----------x--|----------------|-----8-----8-----|-8---8---8p7-------||
|-1----------1--|----------1---1-|-----------------|-------------------||
|---------------|----------1---1-|-4h5---4h5---4h5-|---4---4-----------||


   Outro
    Q=178
    G5 N.C.      G5   N.C.     G5
                               PM--------|
    Q   E E  E E Q    E E E Q  S S S S S S
||------------------|----------------------|
||o-----------------|----------------------|
||-----10---10p8----|-8---8p7--------------|
||--5------------5--|----------------------|
||o-5------------5--|----------5-5-5-5-5-5-|
||--5------------5--|----------5-5-5-5-5-5-|
|
|                              PM--------|
|   Q   E E  E E Q    E E E Q  S S S S S S
||------------------|----------------------|
||o-----------------|----------------------|
||-----10---10p8----|-8---8p7--------------|
||--5------------5--|----------------------|
||o-x------------x--|----------------------|
||--5------------5--|----------5-5-5-5-5-5-|


  F5 N.C.    F5   N.C.     F5
                           PM--------|
  Q  E E E E Q    E E E Q  S S S S S S
|---------------|-----------------------|
|----6---6p4----|-4---4p3---------------|
|---------------|-----------------------|
|-3----------3--|-----------------------|
|-3----------3--|----------3-3-3-3-3-3--|
|-3----------3--|----------3-3-3-3-3-3--|
|
| Q  E E E E Q    E E E Q  E   E   E
|---------------|-----------------------|
|----6---6p4----|-4---4p3---------------|
|---------------|----------3p==2p==0----|
|-7----------7--|-----------------------|
|-x----------x--|-----------------------|
|-7----------7--|-----------------------|


  Eb5N.C.    Eb5  N.C.     Eb5
                            PM-------------
  Q  E E E E Q    E E E Q   S S  S S  S S
|----1---1------|-------------------------|
|----------4----|-4---4p3-----------------|
|---------------|-------------------------|
|-1----------1--|-------------------------|
|-1----------1--|-----------1-1--1-1--1-1-|
|-1----------1--|-----------1-1--1-1--1-1-|
|
| Q  E E E E Q    E E E Q   E    E    E
|----1---1------|-------------------------|
|----------4----|-4---4p3-----------------|
|-3----------3--|-------------------------|
|-x----------x--|-------------------------|
|-1----------1--|----------13p==12p==10---|
|---------------|-------------------------|


  N.C.
 -------------------------|
  E E E E E E E E   E E E E E E  E E  8x
|-----------------|-------------------||
|-----------------|------------------o||
|-----------------|-------------------||
|-----------------|-------------------||
|-----------------|---------5-5--5-5-o||
|-3-3-3-3-3-3-3-3-|-4-4-4-4-----------||
|
| PM|   PM|   PM|     PM  PM
| E E E E E E E E   E E E E E Q.      8x
|-----------------|-------------------||
|-----------------|------------------o||
|-----------------|-------------------||
|-----8-----8-----|-8---8---8p7-------||
|-----------------|------------------o||
|-4h5---4h5---4h5-|---4---4-----------||


Duration Legend
---------------
W - whole; H - half; Q - quarter; E - 8th; S - 16th; T - 32nd; X - 64th; a - acciaccatura
+ - note tied to previous; . - note dotted; .. - note double dotted
Uncapitalized letters represent notes that are staccato (1/2 duration)
Irregular groupings are notated above the duration line
Duration letters will always appear directly above the note/fret number it represents the
duration for.  Duration letters with no fret number below them represent rests.  Multi-
bar rests are notated in the form Wxn, where n is the number of bars to rest for.  Low
melody durations appear below the staff

Tablature Legend
----------------
 h   - hammer-on
 p   - pull-off
 b   - bend
 pb  - pre-bend
 r   - bend release (if no number after the r, then release immediately)
 /\  - slide into or out of (from/to "nowhere")
 s   - legato slide
 S   - shift slide
  - natural harmonic
[n]  - artificial harmonic
n(n) - tapped harmonic
 ~   - vibrato
 tr  - trill
 T   - tap
 TP  - trem. picking
 PM  - palm muting
\n/  - tremolo bar dip; n = amount to dip
 \n  - tremolo bar down
 n/  - tremolo bar up
/n\  - tremolo bar inverted dip
 =   - hold bend; also acts as connecting device for hammers/pulls
 <>  - volume swell (louder/softer)
 x   - on rhythm slash represents muted slash
 o   - on rhythm slash represents single note slash

Misc Legend
-----------
 |  - bar
||  - double bar
||o - repeat start
o|| - repeat end
*|  - double bar (ending)
 :  - bar (freetime)
 $  - Segno
 &  - Coda
Tempo markers -  = BPM(8/16=s8/s16), where s8 = swing 8ths, s16 = swing 16ths
Добавлено: 23.02.2012
Другие материалы по этой песне:

Страница создана 23.02.2012
http://primanota.ru/catherine/thou-art-a-villian-chords.htm
Привет, Гость.
Предлагаем пройти революционный курс по гитаре.
Подарок от PrimaNota.Ru, забирай!