PrimaNota.ru - самый крупный в мире бесплатный архив песенных текстов, аккордов, табулатур и нот


Catherine - Tailor - текст песни, таба, видео

Регистрация Запомнить меня
Войти через:  Facebook Google Twitter Vk Yandex Mail.ru

Catherine - Tailor - текст песни, таба, видео

Печатать
Просмотров: 180
                    
    (0:00-0:11)  sounds like an upstrum
  D|-----------------------|
  A|-----------------------|
  F|---9---------9---------|
  C|-0-7-0-7-7-0-7-8-7-----|
  G|-0-0-0-0-0-0-0-8-7-----|X3
  C|-0-0-0-0-0-0-0-8-7~----|

    (0:11-0:15)
  D|---------------------------|
  A|---------------------------|
  F|---------------------------|
  C|---------------------8-7-0-|
  G|-0--12\-0--12\-0-----8-7-0-|X1
  C|-0--12\-0--12\-0-0-0-8-7-0-|
                                 |---------------------|
    (0:15-0:44)                  |                     |
  D|-33333-555-333-666-555-333-666|--------|           |
  A|-33333-333-333-333-333-333-333|-3h5h6-3|           |
  F|------------------------------|--------|           |
  C|------------------------------|--------|           |
  G|------------------------------|--------|guitar 1   |
  C|------------------------------|--------|           |
                                                       |X2
    (0:17-0:44)                                        |
  D|----------------------------|-------|              |
  A|----------------------------|-------|              |
  F|-7777------5555------5---5--|-------|              |
  C|-7777-8888-5555----5---5----|-0~-7~-|              |
  G|-5555-8888-3333--3----3-----|-0~-0~-|guitar 2      |
  C|------8888------------------|-0~-0~-|              |
                                 |                     |
                                 | --------------------|
    (0:44-1:01)
  D|------------------------------------------------------|
  A|------------------------------------------------------|
  F|------------------------------------------------------|
  C|----7h9---8-7---------7h9----999-----------7^-333-222-|
  G|-4-----7h8----8---4------7h8-888-4h6h7-4------333-222-|X2
  C|-4-3----------8-7~4-3--------------------3----333-222-|
    {1:01-1:23)
  D|-------------------|-------------|
  A|-------------------|--------7\---|
  F|---7---7-7---7-----|--------7\---|
  C|-0-7-0-7-7-0-7-8-7-|-00-0-00-----|
  G|-0-0-0-0-0-0-0-8-7-|-00-0-00-----|
  C|-0-0-0-0-0-0-0-8-7~|-00-0-00-----|

    (1:23-1:44)
  D|-----------------------|
  A|-----------------------|
  F|-----------------------|
  C|--5/10~12\8~10\7~8\5~--|
  G|-----------------------|X2
  C|-----------------------|


                                 |---------------------|
    (1:44-2:08)                  |                     |
  D|-33333-555-333-666-555-333-666--------|            |
  A|-33333-333-333-333-333-333-333--------|            |
  F|--------------------------------------|            |
  C|--------------------------------------|            |
  G|--------------------------------------|guitar 1    |
  C|--------------------------------------|            |
                                                       |X2
    (1:44-2:08)                                        |
  D|---------------------------------|-------|         |
  A|---------------------------------|-------|         |
  F|-\\\\-7777------5555------5---5--|-------|         |
  C|-\\\\-7777-8888-5555----5---5----|-0~-7~-|         |
  G|-\\\\-5555-8888-3333--3----3-----|-0~-0~-|guitar 2 |
  C|-\\\\------8888------------------|-0~-0~-|         |
                                 |                     |
                                 | --------------------|

    (2:08-2:20)
  D|-13-0-13-0-13-0-13-0-13-0-13-0-13-0-12-0-13-0-12-0-13-|
  A|------------------------------------------------------| 
  F|------------------------------------------------------|
  C|------------------------------------------------------|
  G|------------------------------------------------------|
  C|------------------------------------------------------|


    (2:20-3:04)
  D|-13-00-12-0-15-00-13-0-12-13p12-0h12----------|
  A|----------------------------------------------| 
  F|----------------------------------------------|
  C|----------------------------------------------|
  G|----------------------------------------------|
  C|----------------------------------------------|





Добавлено: 02.06.2012
Другие материалы по этой песне:
  • Аккорды и текст

Страница создана 02.06.2012
http://primanota.ru/catherine/tailor-chords.htm
Привет, Гость.
Предлагаем пройти революционный курс по гитаре.
Подарок от PrimaNota.Ru, забирай!