PrimaNota.ru - самый крупный в мире бесплатный архив песенных текстов, аккордов, табулатур и нот


Catherine - Stranger Danger - текст песни, таба, видео

Регистрация Запомнить меня
Войти через:  Facebook Google Twitter Vk Yandex Mail.ru

Catherine - Stranger Danger - текст песни, таба, видео

Печатать
Просмотров: 186
Уроки эстрадного вокала в Санкт-Петербурге
D|----------------------------------------------------------|
A|----------------------------------------------------------|
F|----------------------------------------------------------|
C|----------------------------------------------------------|
G|5-7-8--5-7-8--5-7-8--5-7-8--7-8-10--7-8-10--7-8-10--7-8-10|
C|----------------------------------------------------------|

D|-----------------------------------------------------------|  First Time 
A|-----------------------------------------------------------|  End Of First Intro Measure
F|-----------------------------------------------------------|
C|-----------------------------------------------------------|
G|8-10-12--8-10-12--8-10-12--8-10-12-----------8------/10-8--|
C|------------------------------------10-12-13---12-11-------|
                                      *  *  *    *  * 
D|----------------------------------------------------------|
A|----------------------------------------------------------|
F|----------------------------------------------------------|
C|----------------------------------------------------------|
G|5-7-8--5-7-8--5-7-8--5-7-8--7-8-10--7-8-10--7-8-10--7-8-10|
C|----------------------------------------------------------|
                                              * * *   * * *
D|--------------------------------------------------------------------------|  Second Time
A|--------------------------------------------------------------------------|  End Of Intro
F|--------------------------------------------------------------------------|
C|------------------------------------10-8-7--------8-7-5-------7-5-3-------|
G|8-10-12--8-10-12--8-10-12--8-10-12---------10-8-7-------8-7-5-------7-5-3-|
C|--------------------------------------------------------------------------|

D|---------------------------------|--------------------------------|-----------------|
A|---------------------------------|--------------------------------|                 |
F|---------------------------------|--------------------------------|                 |
C|---------------------------------|--------------------------------|                 |
G|----10-----8-----7-----5-----7/5-|-----10-----8-----7-----5-----7-|                 | 
C|8-8----8-8---8-8---8-8---8-8-----|-8-8----8-8---8-8---8-8---8-8---|                3x
  * *    * *   * *   * *   * *       * *    * *   * *   * *   * *                     |
D|---------------------------------|-------------------------------------|            |
A|---------------------------------|-------------------------------------|            |
F|---------------------------------|-------------------------------------|------------|
C|---------------------------------|-------------------------------------|
G|----10-----8-----7-----5-----7---|-----10-----12-----13-----12-----10--|
C|7-7----7-7---7-7---7-7---7-7-----|-8-8----8-8----8-8----8-8----8-8-----|
  * *    * *   * *   * *   * *       * *    * *    * *    * *    * *
D|------------------------------------------------------------|
A|------------------------------------------------------------|
F|------------------------------------------------------------|
C|-------------------------------8p0-7p0-5p0-7h8p0-3-5h7p0-2--|
G|----5h7h8-7-5-7-8-8h7h5-------------------------------------|
C|0-0---------------------8--0-0------------------------------|
  * *                        * *
D|--------------------------------------------------------------------|
A|--------------------------------------------------------------------|
F|--------------------------------------------------------------------|
C|--------------------------------------------------------------------|
G|----7/8-7-5-7-8-8h7h5-----0h4p0-0h4p0-0h5p0-0h5p0-0h7p0-0h7p0-7/12--|
C|0-0-------------------8---------------------------------------------|
  * *                     
D|----------------------------------------------------------|
A|----------------------------------------------------------|
F|----------------------------------------------------------|
C|-----------------------------8p0-7p0-5p0-7h8p0-3-5h7p0-2--|
G|----7/8-7-5-7-8-8h7h5-------------------------------------|
C|0-0-------------------8--0-0------------------------------|
  * *                      * *
D|----------------------------------------------------------|
A|----------------------------------------------------------|
F|----------------------------------------------------------|
C|-----------------------------8p0-7p0-5p0-7h8p0-3-5h7p0-2--|
G|----7/8-7-5-7-8-8h7h5-------------------------------------|
C|0-0-------------------8--0-0------------------------------|
  * *                      * *
D|---------------------------------------------------------|
A|---------------------------------------------------------|
F|---------------------------------------------------------|
C|----5/7-5-3-5-7-7p5p3-------------------7h8p0-3-5h7p0-2--|
G|----------------------5-----8p0-7p0-5p0------------------|
C|0-0---------------------0-0------------------------------|
  * *                     * *
D|---------------------------------------------------------|
A|---------------------------------------------------------|
F|---------------------------------------------------------|
C|----5/7-5-3-5-7-7p5p3-------------------7h8p0-3-5h7p0-2--|
G|----------------------5-----8p0-7p0-5p0------------------|
C|0-0---------------------0-0------------------------------|
  * *                     * *
D|---------------------------------------------------------|
A|---------------------------------------------------------|
F|---------------------------------------------------------|
C|--------------------------------------8888-7777-5555-12--|------------4x
G|0--0-0-0-0-8-7-5-8-7--0-0-0-0-000-000--------------------|
C|0--0-0-0-0-8-7-5-8-7--0-0-0-0-000-000--------------------|
     * * * * * * * * *  * * * * *** ***
D|-----|
A|-----|Believe it or not do this about 63x
F|-----|
C|-----|
G|000--|
C|000--|         4x                            3x
  ***            |                             |
D|-------|-------------------------|------------------------|
A|-------|-------------------------|------------------------|
F|-------|-------------------------|------------------------|
C|-------|-------------------------|------------------------|
G|3-2-1--|0-0-0-0-0--0-0--0-3-2-0--|00000000--0-0--0-3-2-0--|
C|3-2-1--|0-0-0-0-0--0-0--0-3-2-0--|00000000--0-0--0-3-2-0--|
  * * *   * * * * *  * *  * * * *   ********  * *  * * * * 
D|-------------------------------------------------------------------------|
A|------6-----5-----6-----------6-----5-----6-----------6-----5-----6------|
F|----7---7-----7-----7-------7---7-----7-----7-------7---7-----7-----7----|
C|--7-------7-----7-----7---7-------7-----7-----7---7-------7-----7-----7--|
G|5-----------------------4-----------------------5------------------------|
C|-------------------------------------------------------------------------|
               
              12x
D|----------|------|
A|6---5-----|------|
F|7---7-----|------|
C|7---7-----|------|
G|5---0--0--|5t12--|
C|-------0--|------|

D|-------------------------------------------------|
A|-------------------------------------------------|
F|---------12-----------10----------9-----------7--|
C|-------------------------------------------------|
G|000-000--10--000-000--8--000-000--7--000-000--5--|
C|000-000------000-000-----000-000-----000-000-----|
  *** ***      *** ***     *** ***     *** ***
D|-------------------------------------------------|
A|-------------------------------------------------|
F|-------------------------------------------------|
C|-------------------------------------------------|
G|888-888--10--888-888--8--888-888--7--888-888--5--|
C|888-888------888-888-----888-888-----888-888-----|
  *** ***      *** ***     *** ***     *** ***
D|-------------------------------------------------|
A|-------------------------------------------------|
F|-------------------------------------------------|
C|---------------------<3>-------------------------|
G|777-777--10--777-777-----777-777--7--777-777--5--|
C|777-777------777-777-----777-777-----777-777-----|
  *** ***      *** ***     *** ***     *** ***
D|--------------------------------------------------|
A|--------------------------------------------------|
F|--------------------------------------------------|
C|--------------------------------------------------|
G|888-888--7--888-888--8--888-888--10--888-888--12--|
C|888-888-----888-888-----888-888------888-888------|
  *** ***     *** ***     *** ***      *** ***
D|----------------------------------|
A|----------------------------------|
F|----------------------------------|
C|----------------------------------|
G|000-0-0-0-000-0-0-0-000-0-0-0--0--|
C|000-0-0-0-000-0-0-0-000-0-0-0--0--|
  *** * * * *** * * * *** * * *  *
                                 |----Bend----|
D|---------------------------------------------|
A|--------------------------------12-12-12-12--|
F|--------------------------------14-14-14-14--|-------3x
C|---------------------------------------------|
G|000-0-0-0-000-0-0-0-000-0-0-0----------------|
C|000-0-0-0-000-0-0-0-000-0-0-0----------------|
  *** * * * *** * * * *** * * *

D|----------------------------------|
A|----------------------------------|
F|----------------------------------|
C|---------7-----5-----7p0-5p0-8p0--|2x
G|000-000---------------------------|
C|000-000----0-0---0-0--------------|
  *** ***    * *   * *
D|----------------------------------|
A|----------------------------------|
F|----------------------------------|
C|---------7-----5-----7p0-5p0-8p0--|2x
G|888-888---------------------------|
C|888-888----8-8---8-8--------------|
  *** ***    * *   * *
D|----------------------------------|
A|----------------------------------|
F|----------------------------------|
C|---------7-----5-----7p0-5p0-8p0--|2x
G|000-000---------------------------|
C|000-000----0-0---0-0--------------|
  *** ***    * *   * *
D|----------------------------------|
A|----------------------------------|
F|----------------------------------|
C|---------7-----5-----7p0-5p0-8p0--|2x
G|888-888---------------------------|
C|888-888----8-8---8-8--------------|
  *** ***    * *   * *
D|----------------------------------|
A|----------------------------------|
F|----------------------------------|
C|---------7-----5-----7p0-5p0-8p0--|2x
G|000-000---------------------------|
C|000-000----0-0---0-0--------------|
  *** ***    * *   * *


Key
*  = palm mute
<> = pinch harmonic
/  = slide into
h  = Hammer on
p  = Pull Off

sexpistols31@yahoo.com
myspace.com/373406646 
Добавлено: 15.07.2012
Другие материалы по этой песне:
  • Аккорды и текст

Страница создана 15.07.2012
http://primanota.ru/catherine/stranger-danger-chords.htm
Привет, Гость.
Предлагаем пройти революционный курс по гитаре.
Подарок от PrimaNota.Ru, забирай!