PrimaNota.ru - самый крупный в мире бесплатный архив песенных текстов, аккордов, табулатур и нот


Catherine - Naturals - текст песни, таба, видео

Регистрация Запомнить меня
Войти через:  Facebook Google Twitter Vk Yandex Mail.ru

Catherine - Naturals - текст песни, таба, видео

Печатать
Просмотров: 154
Уроки эстрадного вокала в Санкт-Петербурге
CATHERINE - THE NATURALS

AHM THIS IS ONLY ONE GUITAR SOP DROP "C" AND KEEP ROCKIN!

INTRO
|----------------------------------------------------------|
|----------------------------------------------------------|
|--9-9-5-5-7-7-4-4-5-5-5-5-5-5-12-12-12-12-11-11-11-11-----|
|--9-9-5-5-7-7-4-4-5-5-5-5-5-5-X--X--X--X--X--X--X--X------|
|--7-7-3-3-5-5-2-2-3-3-3-3-3-3-10-10-10-10-9--9--9--9------|
|----------------------------------------------------------|

|-------------------------------------------|
|-------------------------------------------|
|---4-----------------------5///////--------|
|-----5-4-2---2-4-2-4-5-4-5-----------------|
|-----------5-------------------------------|
|-------------------------------------------|

If I Called...
|--12-0-12-0-12-0-12-0-15-0-15-0-15-0-15-0-14-0-14-0-14-0-14-0-------5----|
|-----------------------------------------------------------------5-------|
|---------------------------------------------------------------5---5-----| [x2]
|-------------------------------------------------------------------------|
|-------------------------------------------------------------------------|
|-------------------------------------------------------------------------|
                                                                * * * *

|-------------------------------------------------------------------------------------------|
|-------------------------------------------------------------------------------------------|
|--9-9-9-9-11-11-11-11-12-12-12-12-11-11-11-11-8-8-8-8-9-9-9-9-11-11-11-11-12-12-12-12-----|
|--X-X-X-X-X--X--X--X--X--X--X--X--X--X--X--X--X-X-X-X-X-X-X-X-X--X--X--X--X--X--X--X------|
|--7-7-7-7-9--9--9--9--10-10-10-10-9--9--9--9--6-6-6-6-7-7-7-7-9--9--9--9--10-10-10-10-----|
|-------------------------------------------------------------------------------------------|

|---------------------------------------------15-0-15-0-14-0-14-0-17-0-15-0-14-15-14-----|
|----------------------------------------------------------------------------------------|
|--9-9-9-9-11-11-11-11-12-12-12-12-14-14-14-14-------------------------------------------|
|--X-X-X-X-X--X--X--X--X--X--X--X--X--X--X--X--------------------------------------------|
|--7-7-7-7-9--9--9--9--10-10-10-10-12-12-12-12-------------------------------------------|
|----------------------------------------------------------------------------------------|

|--------------------------------------------------------15-0-14-0-12-0-10---|
|---------------------------------13-----------------------------------------|
|------------9---------12---------X-12-12-12-12----5---5---------------------|
|--2---------X---------X----------9-X--X--X--X-----5---5---------------------|
|--2-2-2-2-2-7-2-2-2-2-10-2-2-2-2---10-10-10-10----3---3---------------------|
|--2-2-2-2-2---2-2-2-2----2-2-2-2--------------------------------------------|
     . . . .   . . . .    . . . .

|-----------------------------------------------------|
|---------------------------------13------------------|
|------------9---------12---------X-12-12-12-12-------|
|--2---------X---------X----------9-X--X--X--X--------|
|--2-2-2-2-2-7-2-2-2-2-10-2-2-2-2---10-10-10-10-------|
|--2-2-2-2-2---2-2-2-2----2-2-2-2---------------------|
     . . . .   . . . .    . . . .

|---------------------------15-0-14-0-12-0-10---------|
|-----------------------------------------------------|
|------7-----7----7-----7-----------------------------|
|----5-----5----5-----5-------------------------------|
|--3-----3-----3----2-----2---------------------------|
|-----------------------------------------------------|
         .     .    .     .

|--19-0-17-0-15-0-14-0-15-0-17-0-15-0-14-0------|
|-----------------------------------------------|
|-----------------------------------------------|
|-----------------------------------------------| [x6]
|-----------------------------------------------|
|-----------------------------------------------|

[AHM IN THIS PART JUST TRY TO FOLLOW THE RHYTHM]
|--------------------------------------------------------------|
|--------12-12-12-12-12---12-12---12---13-13-13-13----13-13----|
|------9----------------9-------9----11------------11----------|
|--2-----------------------------------------------------------|
|--2-----------------------------------------------------------|
|--2-----------------------------------------------------------|

|----------------------------------------------------------------|
|----------------------------------------------------------------|
|------------------------------------------4-----7-----5---------|
|--2----2--4--2--5--2--7--2--5/---5--7--5--4--5--7-----5---------|
|--2----2--4--2--5--2--7--2--5/---5--7--5--2--5--5-----3---------|
|--2----2--4--2--5--2--7--2--5/---5--7--5-----5------------------|

|-----------------------------------10------------|
|--12--12--12-----------------------14------------|
|--15--15--15-----4-------------------------------|
|-------------------5-4-2---2-4--2----------------|
|-------------------------5-----------------------|
|-------------------------------------------------|

|----------------------------------------------------------|
|----------------------------------------------------------|
|--9-9-5-5-7-7-4-4-5-5-5-5-5-5-12-12-12-12-11-11-11-11-----|
|--9-9-5-5-7-7-4-4-5-5-5-5-5-5-X--X--X--X--X--X--X--X------| [x2]
|--7-7-3-3-5-5-2-2-3-3-3-3-3-3-10-10-10-10-9--9--9--9------|
|----------------------------------------------------------|

|-------------------------------------------|
|-------------------------------------------|
|---4-----------------------5///////--------|
|-----5-4-2---2-4-2-4-5-4-5-----------------|
|-----------5-------------------------------|
|-------------------------------------------|

|----------------------------------------------|
|----------------------------------------------|
|---4-------5-4-2-----------5///////------9/---|
|-----5-4-2-------5-4-2---2---------------9/---|
|-----------------------5-----------------7/---|
|----------------------------------------------|

|-----------------------------------------------------------------|
|-----------------------------------------------------------------|
|--------------4-4-----4-4------------4-4-----4-4-----------------|
|--------------4-4-----4-4------------4-4-----4-4-----------------|
|--2-2-2-2-2-2-2-2-2-2-2-2-2-2-2--2-2-2-2-2-2-2-2-2-2-2-----------|
|--2-2-2-2-2-2-----2-2-----2-2-2--2-2-----2-2-----2-2-2-----------|
   . . . . . .     . .     . . .  . .     . .     . . .

|----------------------------------|
|----------------------------------|
|-------7-7-7------7-7-7----7------|
|--5-5-5------5-5-5------5-5-------| [x2]
|----------------------------------|
|----------------------------------|

|---------------------------------------------------------|
|---------------------------------------------------------|
|-------7-7-7------------------------4-4-4------5-5-5-----|
|--5-5-5------5-5-4-4-4-2-2-2---2-2-2------4-4-4----------|  [x2]
|-----------------------------5---------------------------|
|---------------------------------------------------------|

|---------------------------------------------------------|
|---------------------------------------------------------|
|-------4-4-4----5-5-5-4-4-4---------4---4------5---5-----|
|--5-5-5-----7-7------------7-7-2-2-2--2---4-4-4--4-------|  [x2]
|---------------------------------------------------------|
|---------------------------------------------------------|
   . . . . . . . . . . . . . . . . . . . . . . . . . .

|----------------------------------------------------------------------|
|----------------------------------------------------------------------|
|--5---7---9----5-5-5-5-5-7-7-7-7-7-9-9-9-9-9-9-9-9-9-9-12-12-12-12----|
|--5---X---X----5-5-5-5-5-7-7-7-7-7-9-9-9-9-9-9-9-9-9-9-X--X--X--X-----|
|--3---5---7----3-3-3-3-3-5-5-5-5-5-7-7-7-7-7-7-7-7-7-7-10-10-10-10----|
|----------------------------------------------------------------------|

|--------7-7----7-8-0-7-0--------------|
|--8-7-------10-----------10-8-7-------|
|------9-------------------------9-----| 
|--------------------------------------| [x2]
|--------------------------------------|
|--------------------------------------|

|--3-0-0-2-0-0-0-0-5-0-0-0-0-3-0-0-2-0-0-3-0-0-2-0-0----|
|-------------------------------------------------------|
|-------------------------------------------------------|
|-------------------------------------------------------| [x2]
|-------------------------------------------------------|
|-------------------------------------------------------|
   . . . . . . . . . . . . . . . . . . . . . . . . . 

|--8-0-7-0---------------|
|----------10-8-7--------|
|-----------------9------|
|------------------------| [x3]
|------------------------|
|------------------------|

|--0-0-0-0-0-0-0-0-0-0-0-0-0-0-0-0-0------|
|--5-5-5-5-5-5-5-5-5-4-4-4-4-7-7-7-7------|
|-----------------------------------------|
|-----------------------------------------| [x2]
|-----------------------------------------|
|-----------------------------------------|

|--------------------------------|
|--7^-7-5-----------5-7^-7-------|
|---------7-5-4-5-7--------------|
|--------------------------------| 
|--------------------------------|
|--------------------------------|

|------------------------------------|
|------------------------------------|
|--------4-----------------4---------|
|--2-4-2--------2----2-4-2-----------| [x8]
|-----------2-2-2--------------------|
|-----------2-2-2--------------------|
            . .

|-----------------------------------|
|-----------7^-7-5------------------|
|--5---------------7-5-4-5-4--------|
|--5--------------------------------|
|--3--------------------------------|
|-----------------------------------|


HEY AND THATS ALL ^^

CHECK THE VIDEO

http://www.youtube.com/watch?v=YJhsCXNTUh4

THANX FREAKY WI!!! 
Добавлено: 31.03.2012
Другие материалы по этой песне:
  • Аккорды и текст

Страница создана 31.03.2012
http://primanota.ru/catherine/naturals-chords.htm
Привет, Гость.
Предлагаем пройти революционный курс по гитаре.
Подарок от PrimaNota.Ru, забирай!