PrimaNota.ru - самый крупный в мире бесплатный архив песенных текстов, аккордов, табулатур и нот


Catherine - Is It Tomorrow Yet - текст песни, таба, бас-таба, видео

Регистрация Запомнить меня
Войти через:  Facebook Google Twitter Vk Yandex Mail.ru

Catherine - Is It Tomorrow Yet - текст песни, таба, бас-таба, видео

Печатать
Просмотров: 230
-------------------------------------------------------------------------------
                             Is It Tomorrow Yet? - Catherine
-------------------------------------------------------------------------------
Tabbed by: Choii
Email:Ian_soupe@hotmail.com

Tuning:Drop B

This is just the intro, ill write the rest down when i have more time.

(Drum roll, and then long scream)
e|---------------------------------------------------------------------------|
B|---------------------------------------------------------------------------|
G|---------------------------------------------------------------------------|
D|--8-8-7-7-5-5-4-4-5-5-7-X-8-8-7-7-5-5-4-4X5-5------------------------------|
A|---------------------------------------------------------------------------|
E|---5-5-5-5-5-5-4-4-5-5-5-5-5-5-5-5-5-5-4-4-5-5-----------------------------|
     . . . . . . . . . . . . . . . . . . . . . .
intro cont.
e|---------------------------------------------------------------------------|
B|------------------------------------play-twice-----------------------------|
G|---------------------------------------------------------------------------|
D|--10-8-7-12-10---8h10p8h10p8h10--------------------------------------------|
A|---------------------------------------------------------------------------|
E|----7-7-7--9--9------------------------------------------------------------|
      . . .  .  .


| h  hammer-on
| p  pull-off
| x  Mute note
===============================================================================
Добавлено: 01.03.2012
Другие материалы по этой песне:

Страница создана 01.03.2012
http://primanota.ru/catherine/is-it-tomorrow-yet-chords.htm
Привет, Гость.
Предлагаем пройти революционный курс по гитаре.
Подарок от PrimaNota.Ru, забирай!