PrimaNota.ru - самый крупный в мире бесплатный архив песенных текстов, аккордов, табулатур и нот


Catherine - Funny Bunny - таба, видео

Регистрация Запомнить меня
Войти через:  Facebook Google Twitter Vk Yandex Mail.ru

Catherine - Funny Bunny - таба, видео

Печатать
Просмотров: 190
Уроки эстрадного вокала в Санкт-Петербурге
Transcribed by Adam Morris

  Most of this is faily correct except the start lead bit
  is a bit rough I think.  This is my third Catherine TAB.
  I hope you are enjoying these tabs, and I hope to get
  some feedback on them too to know how they are going.

  TUNING - Standard (E A D G B E)

 INTRO
|----------------------------------------------------|
|----------------------------------------------------|
|-11h12p11~~~---------------------9-11-12-11-9\------|
|-------------11h12p11----9-11/12--------------------|
|----------------------12----------------------------|
|----------------------------------------------------|

Intro Simile repeats throughout the verse.

VERSE

Only the chords are shown.  Each one is played for
two bars.
|----------------------------------------------------|
|----------------------------------------------------|
|-------------------------------------2--------------|
|-5-----------------3-----------------2--------------|
|-5-----------------3-----------------0--------------|
|-3-----------------1--------------------------------|

 CHORUS
 Then it joins to the chorus which is played many times.
|----------------------------------------------------|
|----------------------------------------------------|
|-7--7--xxxx-5--5-xx------xxx-5--5-xx----------------|
|-7--7--xxxx-5--5-xx-7--7-xxx-5--5-xx----------------|
|-5--5--xxxx-3--5-xx-7--7-xxx-3--3-xx----------------|
|-5--5-------3--3----5--5-----3--3-------------------|

Then this is played at the end of the first chorus.
|----------------------------------------------------|
|----------------------------------------------------|
|----------------------------------------------------|
|-5---------3---------5---------3--------------------|
|-5---------3---------5---------3--------------------|
|-3---------1---------3---------1----------/--\------|

Back to the VERSE

Back to the CHORUS for twice as long then to this
part which I think is one of the coolest sounding
bits on the album.

With slight palm muting
|----------------------------------------------------|
|----------------------------------------------------|
|----------------------------------------------------|
|--5--5-------7--7---8--8-xxx-3--3-/10-10-10-\-------|
|--5--5-------7--7---8--8-xxx-3--3-/10-10-10-\-------|
|--3--3--0-0--5--5-0-6--6-xxx-1--1-/-8--8--8-\-------|
                                         Slow slide

It does that many times under the solo, and then slightly
changes to this at the end.

Play this 2 times with stronger palm muting.
|-------------------------------------------------------|
|-------------------------------------------------------|
|-------------------------------------------------------|
|--5--5-------7--7--------------------------------------|
|--5--5-------7--7--------------------------------------|
|--3--3--0-0--5--5-0------------------------------------|

 Then this.
|----------------------------------------------------|
|----------------------------------------------------|
|----------------------------------------------------|
|--5--5-------7--7---8--8--3--3-/10-10-10-10-10--9---|
|--5--5-------7--7---8--8--3--3-/10-10-10-10-10--9---|
|--3--3--0-0--5--5-0-6--6--1--1-/-8--8--8--8--8--7---|

     That is pretty much it except for the solo.
     E-mail me with any comments and corrections
     at benmo@deakin.edu.au
Добавлено: 18.03.2012
Другие материалы по этой песне:
  • Аккорды и текст

Страница создана 18.03.2012
http://primanota.ru/catherine/funny-bunny-chords.htm
Привет, Гость.
Предлагаем пройти революционный курс по гитаре.
Подарок от PrimaNota.Ru, забирай!