PrimaNota.ru - самый крупный в мире бесплатный архив песенных текстов, аккордов, табулатур и нот


Catherine - Fallacy - текст песни, таба, видео

Регистрация Запомнить меня
Войти через:  Facebook Google Twitter Vk Yandex Mail.ru

Catherine - Fallacy - текст песни, таба, видео

Печатать
Просмотров: 180
I Don't Know If It's All Completely Right But Most Of It Should Be


Intro

Guitar I
E|----------------------------|
B|---------6--6--6--6--6--6---|
G|-------10-10--9--9--7--7----| 
D|--0-0-----------------------|
A|--0-0-----------------------|
D|--0-0-----------------------|

4th Time
PM                   ---------|
E|----------------------------|
B|-------------------6--6--6--|
G|------------------10-10-10--|
D|--0-0-----------------------|
A|--0-0-----------------------|
D|--0-0---2h3-0--7h8----------|


Guitar II

E|----------------------------|
B|----------------------------|
G|----------------------------|
D|--0-0-----------------------|
A|--0-0-----------------------| <3 Times>
D|--0-0-----------------------|

E|-----------------------------|
B|-----------------------------|
G|-----------------------------|
D|-----------------------------|
A|-----------------------------|
D|--------2h3-0--7h8~~~~~~~~~~-|

Verse

Guitar I

E|------------------------------------------|
B|------------------------------------------|
G|------------------------------------------|
D|--8-8-8-8-10-10-10-10-0-0-0-0-------------|
A|--8-8-8-8-10-10-10-10-0-0-0-0-------------|
D|--8-8-8-8-10-10-10-10-0-0-0-0-------------|

E|------------------------------------------|
B|------------------------------------------|
G|------------------------------------------|
D|---3-3-3-3-3-3-3-3------------------------|
A|--8-8-7-7-5-5-4-4-------------------------|
D|------------------------------------------|

E|------------------------------------------|
B|------------------------------------------|
G|------------------------------------------|
D|--8-8-8-8-10-10-10-10-0-0-0-0-------------|
A|--8-8-8-8-10-10-10-10-0-0-0-0-------------|
D|--8-8-8-8-10-10-10-10-0-0-0-0-------------|

E|------------------------------------------|
B|------------------------------------------|
G|------------------------------------------|
D|---3-3-3-3-3-3-3-3------------------------|
A|--8-8-7-7-5-5-4-4-------------------------|
D|------------------------------------------|


Guitar II

E|--------------------------------------------|
B|--------------------------------------------|
G|10-10-10-10-10-10-10-10-12-12-12-12-9-9-9-9-|
D|--------------------------------------------|
A|-8--8--8--8--8--8--8--8-10-10-10-10-7-7-7-7-|
D|--------------------------------------------|

E|----------------|
B|----------------|
G|-12---10---9s10-|
D|----------------|
A|-10----8---7s8--|
D|----------------|

E|------------------------------------------------|
B|------------------------------------------------|
G|-7--7--7--7--9--9--9--9-10-10-10-10-12-12-14-14-|
D|------------------------------------------------|
A|-5--5--5--5--7--7--7--7--8--8--8--8-10-10-12-12-|
D|------------------------------------------------|


E|--------------------------------------------|
B|--------------------------------------------|
G|10-10-10-10-10-10-10-10-12-12-12-12-9-9-9-9-|
D|--------------------------------------------|
A|-8--8--8--8--8--8--8--8-10-10-10-10-7-7-7-7-|
D|--------------------------------------------|

E|----------------|
B|----------------|
G|-12---10---9s10-|
D|----------------|
A|-10----8---7s8--|
D|----------------|

Pm  - - -  - -  - - -  - - - - - - -  - -  -  - -
E|-------------------------------------------------------------|
B|-------------------------------------------------------------|
G|-------------------------------------------------------------|
D|-------------------------------------------------------------|
A|-5---5-5-----7---7-7----8---8-8---10---10-10---12-12-12------|
D|--0-0-0--0-0--0-0-0--0-0-0-0-0-0-0--0-0--0--0-0---------12s0-|

Guitar I

E|-----------5----------------8-------------|
B|-----6-------6--------6-------6-----------|
G|-------5-------5--------5-------5---------|
D|---7-----7-------7--5-----5-------7-------|
A|------------------------------------------|
D|------------------------------------------|
                                            Do Both Of These 4 Times
E|-----------6------------------------------|
B|-----6-------6--------6--------6----------|
G|-------5-------5--------5--------5--------|
D|---3-----3-------3--3-----3--2-----2------|
A|------------------------------------------|
D|------------------------------------------|

Guitar II

(Ringout 2 times Then the last 2 times do this)

E|-------------------------------------------|
B|-------------------------------------------|
G|-------------------------------------------|
D|-------------------------------------------|
A|-5~-7~-8~-10~-13~--------------------------|
D|-------------------------------------------|

Guitar I
Pm   -   -   -   -
E|---5---8---6---6------------------------|
B|---6---6---6---6------------------------|
G|---5---5---5---5------------------------|
D|---7---5---3---2------------------------| ( I Got lazy Find Out Strumming)
A|----------------------------------------|
D|----------------------------------------|

Guitar II
Pm -  -  -  --  --    Second time after doing it end with this
E|-------------------|-------------------------|
B|-------------------|-------------------------|
G|-------------------|-------------------------|
D|-------------------|-------------------------|
A|-5--7--8--10--13---|-------------------------|
D|-------------------|-12s---------------------|

Guitar I

E|---5~--8~--6~--6~-----------------------|
B|---6~--6~--6~--6~-----------------------|
G|---5~--5~--5~--5~-----------------------|
D|---7~--5~--3~--2~-----------------------|
A|----------------------------------------|
D|----------------------------------------|

Breakdown

Guitar I

E|--------------------------------|
B|--------------6--6--6-----------|
G|------------10--9--7------------|
D|---0--0--0----------------------|
A|---0--0--0----------------------|
D|---0--0--0----------------------|

E|----------------------------------|
B|----------------------------------|
G|----------------------------------|
D|---0--0--0----0--0---------0------|
A|---0--0--0----0--0-----0----------|
D|---1--1--1----1--1---1---1--------|

E|--------------------------------|
B|--------------6--6--6-----------|
G|------------10--9--7------------|
D|---0--0--0----------------------|
A|---0--0--0----------------------|
D|---0--0--0----------------------|

E|----------------------------------|
B|----------------------------------|
G|----------------------------------|
D|---0--0--0----0--0----------------|
A|---0--0--0----0--0----------------|
D|---1--1--1----1--1----------------|

E|--------------------------------|
B|--------------------------------|
G|--------------------------------|
D|---0--0--0----------------------|
A|---0--0--0----------------------|
D|---0--0--0----------------------|

E|----------------------------------|
B|----------------------------------|
G|----------------------------------|
D|---0--0--0----0--0----------------|
A|---0--0--0----0--0----------------|
D|---1--1--1----1--1----------------|

E|--------------------------------|
B|--------------------------------|
G|--------------------------------|
D|---0--0--0----------------------|
A|---0--0--0----------------------|
D|---0--0--0----------------------|

E|----------------------6----6-6----|
B|--------------------10-10-8-6-----|
G|----------------------------------|
D|---0--0--0----0--0----------------|
A|---0--0--0----0--0----------------|
D|---1--1--1----1--1----------------|

E|--------------------------------|
B|--------------6--6--6-----------|
G|------------10--9--7------------|
D|---0--0--0----------------------|
A|---0--0--0----------------------|
D|---0--0--0----------------------|

E|----------------------------------|
B|----------------------------------|
G|----------------------------------|
D|---0--0--0----0--0----------------|
A|---0--0--0----0--0----------------|
D|---1--1--1----1--1----------------|

Guitar II

E|--------------------------------|
B|--------------------------------|
G|--------------------------------|
D|---0--0--0----------------------|
A|---0--0--0----------------------|
D|---0--0--0----------------------|

E|----------------------------------|
B|----------------------------------|
G|----------------------------------|
D|---0--0--0----0--0----------------|
A|---0--0--0----0--0-----0---0--0---|
D|---1--1--1----1--1---1---1--1-----|

E|--------------------------------|
B|--------------------------------|
G|--------------------------------|
D|---0--0--0----------------------|
A|---0--0--0----------------------|
D|---0--0--0----------------------|

E|----------------------------------|
B|----------------------------------|
G|----------------------------------|
D|---0--0--0----0--0----------------|
A|---0--0--0----0--0-----0---0--0---|
D|---1--1--1----1--1---1---1--1-----|

E|--------------------------------|
B|--------------------------------|
G|--------------------------------|
D|---0--0--0----------------------|
A|---0--0--0----------------------|
D|---0--0--0----------------------|

E|----------------------------------|
B|----------------------------------|
G|----------------------------------|
D|---0--0--0----0--0----------------|
A|---0--0--0----0--0----------------|
D|---1--1--1----1--1----------------|


Verse

Guitar I
E|------------------------------------------|
B|------------------------------------------|
G|------------------------------------------|
D|--8-8-8-8-10-10-10-10-0-0-0-0-------------|
A|--8-8-8-8-10-10-10-10-0-0-0-0-------------|
D|--8-8-8-8-10-10-10-10-0-0-0-0-------------|

E|------------------------------------------|
B|------------------------------------------|
G|------------------------------------------|
D|---3-3-3-3-3-3-3-3------------------------|
A|--8-8-7-7-5-5-4-4-------------------------|
D|------------------------------------------|

E|------------------------------------------|
B|------------------------------------------|
G|------------------------------------------|
D|--8-8-8-8-10-10-10-10-0-0-0-0-------------|
A|--8-8-8-8-10-10-10-10-0-0-0-0-------------|
D|--8-8-8-8-10-10-10-10-0-0-0-0-------------|

E|------------------------------------------|
B|------------------------------------------|
G|------------------------------------------|
D|---3-3-3-3-3-3-3-3------------------------|
A|--8-8-7-7-5-5-4-4-------------------------|
D|------------------------------------------|

Guitar II

E|------------------------------------------|
B|------------------------------------------|
G|------------------------------------------|
D|------------------------------------------|
A|-5p0-7p0-8p0-10p0-8p0-7p0-5---------------|
D|------------------------------------------|

E|------------------------------------------|
B|------------------------------------------|
G|------------------------------------------|
D|------------------------------------------|
A|-5p0-7p0-8p0-10p0-8p0-7p0-5---------------|
D|------------------------------------------|

E|------------------------------------------------|
B|------------------------------------------------|
G|-7--7--7--7--9--9--9--9-10-10-10-10-12-12-14-14-|
D|------------------------------------------------|
A|-5--5--5--5--7--7--7--7--8--8--8--8-10-10-12-12-|
D|------------------------------------------------|

E|------------------------------------------|
B|------------------------------------------|
G|------------------------------------------|
D|--10-8-7----8-7---------------------------| (do this 2 times)
A|---------10-----10-8----------------------|
D|------------------------------------------|

Guitar I

E|--------------------------------|
B|--------------------------------|
G|--------------------------------|
D|---0--0-------------------------|
A|---0--0-------------------------|
D|---0--0-------------------------|

Guitar II

E|----------------7*--------------|
B|----------------7*--------------|
G|----------------7*--------------|
D|---0--0---------7*--------------|
A|---0--0---------7*--------------|
D|---0--0---------7*--------------|

Verse Opened Up

Guitar I

E|--------------------------------|
B|--------------------------------|
G|--------------------------------|
D|---0--0-------------------------|
A|---0--0-------------------------|
D|---0--0-------------------------|

E|---------------5*----------------|
B|---------------5*----------------|
G|---------------5*----------------|
D|---0--0--------5*----------------|
A|---0--0--------5*----------------|
D|---0--0--------5*----------------|

E|--------------------------------|
B|--------------------------------|
G|--------------------------------|
D|---0--0-------------------------|
A|---0--0-------------------------|
D|---0--0-------------------------|

E|-----------------------------------|
B|-----------------------------------|
G|-----------------------------------|
D|---0--0------10-8-7h8p7------------|
A|---0--0----------------10-8-7h8h10-|
D|---0--0----------------------------|

E|--------------------------------|
B|--------------------------------|
G|--------------------------------|
D|---8--8--------8-8--7--7--7-----|
A|---8--8--------8-8--7--7--7-----|
D|---8--8--------8-8--7--7--7s----|

E|-------------------------------------------|
B|-------------------------------------------|
G|-------------------------------------------|
D|--3--3--3--5-5-5--7-7-7--8--8--8-10-10-10--|
A|--5--5--5--7-7-7--8-8-8-10-10-10-12-12-12--|
D|-------------------------------------------|

Guitar II

E|--------------------------------------------|
B|--------------------------------------------|
G|10-10-10-10-10-10-10-10-12-12-12-12-9-9-9-9-|
D|--------------------------------------------|
A|-8--8--8--8--8--8--8--8-10-10-10-10-7-7-7-7-|
D|--------------------------------------------|

E|----------------|
B|----------------|
G|-12---10---9s10-|
D|----------------|
A|-10----8---7s8--|
D|----------------|

E|------------------------------------------------|
B|------------------------------------------------|
G|-7--7--7--7--9--9--9--9-10-10-10-10-12-12-14-14-|
D|------------------------------------------------| Do All This 2 Times
A|-5--5--5--5--7--7--7--7--8--8--8--8-10-10-12-12-|
D|------------------------------------------------|


Chorus

Guitar I
I Don't know What This Guitar Does on this part sorrry

Guitar II

E|--------------------------------|
B|--------------------------------|
G|--------------------------------|
D|---8--10--0--3-2----------------|Do This Four Times Fourth Time End On Open
A|---8--10--0--3-2----------------|
D|---8--10--0--3-2----------------|


Outro

Guitar I & II

E|------------------------------------------|
B|------6---6--6--6--6--6--6--6-------------|
G|----10--10--9--9--7--7--6--6--------------|
D|------------------------------------------|
A|------------------------------------------|
D|------------------------------------------|

E|--------------------------------|
B|--------------------------------|
G|--------------------------------|
D|---0--0--0----------------------|
A|---0--0--0----------------------|
D|---0--0--0----------------------|

E|----------------------------------|
B|----------------------------------|
G|----------------------------------|
D|---0------------------------------|
A|---0------------------------------|
D|---1------------------------------|
Добавлено: 28.02.2012
Другие материалы по этой песне:
  • Аккорды и текст

Страница создана 28.02.2012
http://primanota.ru/catherine/fallacy-chords.htm
Привет, Гость.
Предлагаем пройти революционный курс по гитаре.
Подарок от PrimaNota.Ru, забирай!