PrimaNota.ru - самый крупный в мире бесплатный архив песенных текстов, аккордов, табулатур и нот


Catherine - Evil Man Dead Man - текст песни, таба, видео

Регистрация Запомнить меня
Войти через:  Facebook Google Twitter Vk Yandex Mail.ru

Catherine - Evil Man Dead Man - текст песни, таба, видео

Печатать
Просмотров: 142
-------------------------------------------------------------------------------
                       CATHERINE - EVIL MAN DEAD MAN  

                         www.myspace.com/catherine
-------------------------------------------------------------------------------
Tabbed by: Johnny Reyna
Email: eviscerationtbdm@hotmail.com
Myspace: www.myspace.com/xninjamoshx

Tuning: Drop B
B F# B E G# C#
|---------------------------------------------------------------------------|
|-----A.H.------------------------------------------------------------------|
|---7777777-----------------------------------------------------------------|
|---------------------------------------------------------------------------|
|-------------5---------5/--------------------------------------------------|
|-------------5---------5/--------------------------------------------------|

|---------------------------------------------------------------------------|
|---------------------------------------------------------------------------|
|----------------------------5h7h8-------------5h7h8------------------------|
|-----5-5-5-5-5-5-5-7-7-7-7--------5h7h8-5h7h8------------------------------|x4
|---------------------------------------------------------------------------|
|--5-5-5-5-5-1-1-1-1-3-3-3-3------------------------------------------------|
   . . . . . . . . . . . . . 
|---------------------------------------------------------------------------|
|---------------------------------------------------------------------------|
|---------------------------------------------------------------------------|
|--5-7-8-5-10-8-7-----------------------------------------------------------|x4
|-----------------8---------------------------------------------------------|
|---------------------------------------------------------------------------|

|----------------11---------------------------------------------------------|
|----------------15---------------------------------------------------------|
|---------------------------------------------------------------------------|
|---------------------------------------------------------------------------|
|---------------------------------------------------------------------------|
|--5-5-5-5-5-5-5------------------------------------------------------------|
   . . . . . . .
|---------------------------------------------------------------------------|
|---------------------------------------------------------------------------|
|-----------------------------------------5-3-2-----------------------------|
|------------------8-7-5h7----------------------3---------------------------|
|--5-----------------------1------------------------------------------------|
|--5--5-555-5-5-5-5-5-5-----1-111-111-111----------------------------------|
      . ... . . . . . .      . ... ... ...
|---------------------------------------------------------------------------|
|---------------------------------------------------------------------------|
|-----------------------7-5-3-5-7-------------------------------------------|
|-----8-7-5-7-8-------------------------------------------------------------|
|--3-----------------3------------------------------------------------------| 
|--3-3-3-3-3-3-3-3-3-3-3-3-3-3-3-3-3-3--------------------------------------|
     . . . . . . . .   . . . . . . . .
|---------------------------------------------------------------------------|
|---------------------------------------------------------------------------|
|-----------------------------------------5-3-2-----------------------------|
|------------------8-7-5h7----------------------3---------------------------|
|--5-----------------------1------------------------------------------------|
|--5--5-5-5-5-5-5-5-5-5----1-1-111-111-111----------------------------------|
      . . . . . . . . .      . ... ... ...
|---------------------------------------------------------------------------|
|---------------------------------------------------------------------------|
|-----------------------7-5-3-5-7-------------------------------------------|
|-----8-7-5-7-8-------------------------------------------------------------|
|--3-----------------3------------------------------------------------------| 
|--3-3-3-3-3-3-3-3-3-3-3-3-3-3-3-3-3-3--------------------------------------|
     . . . . . . . .   . . . . . . . .
|---------------------------------------------------------------------------|
|---------------------------------------------------------------------------|
|------77----------------------77----------------------77-------------------|
|---------88-55-77-88-7-8---------88-55-77-88-7-8---------88-55-77-88-7-8---|
|--1------------------------3-----------------------5-----------------------|
|--1-1--------------------1-3-3-------------------3-5-5---------------------|
     .                    .   .                   .   .
|---------------------------------------------------------------------------|
|---------------------------------------------------------------------------|
|---8/10-8-7-8-7h8r7----------*---------------------------------------------|
|--------------------8/10-8-7-8---------------------------------------------|
|---------------------------------------------------------------------------|
|---------------------------------------------------------------------------|

|---------------------------------------------------------------------------|
|---------------------------------------------------------------------------|
|------77--------------------77---------------------77----------------------|
|---------88-55-77-88-7-8-------88-55-77-88-7-8--------88-55-77-88-7-8------|
|--1----------------------3---------------------5---------------------------|
|--1-1--------------------3-3-------------------5-5-------------------------|
     .                      .                     .
|---------------------------------------------------------------------------|
|---------------------------------------------------------------------------|
|---------------------------------------------------------------------------|
|------8-7-5-7-----8-7-5-7-5------------------------------------------------|
|--8-----------7------------------------------------------------------------|
|--8-8---------7-7----------------------------------------------------------|
     .           .
|---------------------------------------------------------------------------|
|---------------------------------------------------------------------------|
|-----77-------1010-88-7h8---77-------1010-88-7h8----77-------1010-88-7h8---|
|--------88-55------------------88-55-------------------88-55---------------|
|--1----------------------3-----------------------5-------------------------|
|--1-1--------------------3-3---------------------5-5-----------------------|
     .                      .                       .
|---------------------------------------------------------------------------|
|---------------------------------------------------------------------------|
|---------------------------------------------------------------------------|
|------8-7-5-7-----8-7-5-7-5------------------------------------------------|
|--8-----------7------------------------------------------------------------|
|--8-8---------7-7----------------------------------------------------------|
     .           .
|---------------------------------------------------------------------------|
|---------------------------------------------------------------------------|
|--------------5-----------------------5------------------------------------|
|--8-7-8-5-7-8---8-7-5-7-8-8-7-8-5-7-8---8-7-5-7-8--------------------------|
|---------------------------------------------------------------------------|
|---------------------------------------------------------------------------|
   BREAKDOWN 1
|---------------------------------------------------------------------------|
|---------------------------------------------------------------------------|
|---------------------------------------------------------------------------|
|---------------------------------------------------------------------------|x2
|--5-5--5-5-5-5--5-5---5-5-5-5--5-5---5-5-5-5--5-5------*pick slide*/-------|
|--5-5--5-5-5-5--5-5---5-5-5-5--5-5---5-5-5-5--5-5--------------------------|
   . .  . . . .  . .   . . . .  . .   . . . .  . .
|---------------------------------------------------------------------------|
|---------------------------------------------------------------------------|
|----------------------------------7-3-7-5-2-2------------------------------|
|----------------------------------8-5-8-7-3-3------------------------------|
|---------------------------------------------------------------------------|
|--5-5--5-5-5-5--5-5--5-5---5-5-5-5-----------------------------------------|
   . .  . . . .  . .  . .   . . . .
|---------------------------------------------------------------------------|
|------8h10r8-8h11r8----8h10r8-8h11r8-----14\-------------------------------|
|---------------------------------------------------------------------------|
|---------------------------------------------------------------------------|
|---------------------------------------------------------------------------|
|--000---------------00---------------000-----------------------------------|
   ...               ..               ...
|---------------------------------------------------------------------------|
|---------------------------------------------------------------------------|
|----------7---7-5----------------------------------------------------------|
|--5-7-8-5---8-----7--------------------------------------------------------|
|---------------------------------------------------------------------------|
|---------------------------------------------------------------------------|

|---------------------------------------------------------------------------|
|------8h10r8-8h11r8----8h10r8-8h11r8-----14\-------------------------------|
|---------------------------------------------------------------------------|
|---------------------------------------------------------------------------|
|---------------------------------------------------------------------------|
|--000---------------00---------------000-----------------------------------|
   ...               ..               ...
|---------------------------------------------------------------------------|
|---------------------------------------------------------------------------|
|----------7--7-8-7-5-------------------------------------------------------|
|--5-7-8-5--8---------8-----------------------------------------------------|
|---------------------------------------------------------------------------|
|---------------------------------------------------------------------------|

|---------------------------------------------------------------------------|
|------8h10r8-8h11r8----8h10r8-8h11r8-----14\-------------------------------|
|---------------------------------------------------------------------------|
|---------------------------------------------------------------------------|
|---------------------------------------------------------------------------|
|--000---------------00---------------000-----------------------------------|
   ...               ..               ...
|---------------------------------------------------------------------------|
|---------------------------------------------------------------------------|
|---------------------------------------------------------------------------|
|---------------------------------------------------------------------------|
|--5------------------------------------------------------------------------|
|--5------------------------------------------------------------------------|

|-----5-7-8-10--11-10-11-10-8------------10-11-10---------------------------|
|--888-8-8-8--8------------------8-10-11----------11------------------------|
|-----------------------------888-8--8--8-----------------------------------|x4
|---------------------------------------------------------------------------|
|---------------------------------------------------------------------------|
|---------------------------------------------------------------------------|

|---------------------------------------------------------------------------|
|---------------------------------------------------------------------------|
|--3--3--3--3---2--2--2--2---0--0--0--0---2--2--2--2------------------------|
|---55-55-55-55--33-33-33-33--11-11-11-11--33-33-33-33----------------------|
|---------------------------------------------------------------------------|
|---------------------------------------------------------------------------|

|---------------------------------------------------------------------------|
|---------------------------------------------------------------------------|
|--3--3--3--3----5--5--5--5----7--7--7--7---5--5--5--5----------------------|
|---55-55-55-55---77-77-77-77---88-88-88-88--77-77-77-77--------------------|
|---------------------------------------------------------------------------|
|---------------------------------------------------------------------------|

|---------------------------------------------------------------------------|
|---------------------------------------------------------------------------|
|--3--3--3--3---2--2--2--2---0--0--0--0---2--2--2--2------------------------|
|---55-55-55-55--33-33-33-33--11-11-11-11--33-33-33-33----------------------|
|---------------------------------------------------------------------------|
|---------------------------------------------------------------------------|

|---------------------------------------------------------------------------|
|--------------------------------------------*------------------------------|
|--3--3--3--3----5--5--5--5----7--7--7--7----5-*pick slide*\----------------|
|---55-55-55-55---77-77-77-77---88-88-88-88--7------------------------------|
|---------------------------------------------------------------------------|
|---------------------------------------------------------------------------|

|---------------------------------------------------------------------------|
|---------------------------------------------------------------------------|
|------77--------------------77---------------------77----------------------|
|---------88-55-77-88-7-8-------88-55-77-88-7-8--------88-55-77-88-7-8------|
|--1----------------------3---------------------5---------------------------|
|--1-1--------------------3-3-------------------5-5-------------------------|
     .                      .                     .
|---------------------------------------------------------------------------|
|---------------------------------------------------------------------------|
|---8/10-8-7-8-7h8r7----------*---------------------------------------------|
|--------------------8/10-8-7-8---------------------------------------------|
|---------------------------------------------------------------------------|
|---------------------------------------------------------------------------|

|---------------------------------------------------------------------------|
|---------------------------------------------------------------------------|
|-----77-------1010-88-7h8---77-------1010-88-7h8----77-------1010-88-7h8---|
|--------88-55------------------88-55-------------------88-55---------------|
|--1----------------------3-----------------------5-------------------------|
|--1-1--------------------3-3---------------------5-5-----------------------|
     .                      .                       .
|---------------------------------------------------------------------------|
|---------------------------------------------------------------------------|
|---------------------------ENDING------------------------------------------|
|---------------------------BREAKDOWN---------------------------------------|
|---8---8-8---7---7-8r7\3---------------------------------------------------|
|---8-8-8-8-8-7-7-7-8r7\3--5-5---5-5-5-5--5-5--5-5--------------------------|
      .     .   .          . .   . . . .  . .  . .








Добавлено: 26.02.2012
Другие материалы по этой песне:

Страница создана 21.02.2012
http://primanota.ru/catherine/evil-man-dead-man-chords.htm
Привет, Гость.
Предлагаем пройти революционный курс по гитаре.
Подарок от PrimaNota.Ru, забирай!