PrimaNota.ru - самый крупный в мире бесплатный архив песенных текстов, аккордов, табулатур и нот


Catherine - Denigration Makes John Doe Angry - текст песни, таба, видео

Регистрация Запомнить меня
Войти через:  Facebook Google Twitter Vk Yandex Mail.ru

Catherine - Denigration Makes John Doe Angry - текст песни, таба, видео

Печатать
Просмотров: 132
GUITAR 1

D----------------------------------------------------------------x2---------|
A---------------------------------------------------------------------------|
F-----------------------------------------------?*--------------------------|
C-0~-00000000000000--88888888--1010101010101010-----------------------------|
G-0~-00000000000000--88888888--1010101010101010-----------------------------|
C-0~-00000000000000--88888888--1010101010101010-----------------------------|
     PM*             PM*       PM*

GUITAR 2 - does a pickslide during the second intro part

GUITAR 2
D-----------------------------------------------------------------x3--------|
A---------------------------------------------------------------------------|
F-7--9--10--9--12--10--9--10-----12--14--15--14--17--15--14--15-------------|
C-x--x---x--x---x---x--x---x------x---x---x---x---x---x---x---x-------------|
G-5--7---8--7--10---8--7---8-----10--12--13--12--15--13--12--13-------------|
C---------------------------------------------------------------------------|

GUITAR 1
D---------------------------------------------------------------------------|
A---------------------------------------------------------------------------|
F---------------------------------------------------------------------------|
C--0--8--10----0--8--3----0--8--10------------------------------------------|
G--0--8--10----0--8--3----0--8--10------------------------------------------|
C--0--8--10----0--8--3----0--8--10------------------------------------------|
palm muted

D------------------------------------------------------------------x3-------|
A---------------------------------------------------------------------------|
F---------------------------------------------------------------------------|
C---------------------------------------------------------------------------|
G-5-7-8~-8-7-5--7-8-10-8-7--8-10-12-12-10-8--10-12-13--13-12-10-------------|
C---------------------------------------------------------------------------|

Guitar 1

D---------------------------------------------------------------------------|
A---------------------------------------------------------------------------|
F---------------------------------------------------------------------------|
C---------------------------------------------------------------------------|
G--88-8-8-88-8-8-888----1010-10-10-1010-10-10-101010------------------------|
C--88-8-8-88-8-8-888----1010-10-10-1010-10-10-101010------------------------|

Guitar 1

D---------------------------------------------------------------------x2----|
A---------------------------------------------------------------------------|
F---------------------------------------------------------------------------|
C-3-5-7~-7-5-3--5-7-8-7-5~--7-8-10~-10-8-7--8-10-12--12-10-8~---------------|
G---------------------------------------------------------------------------|
C---------------------------------------------------------------------------|

guitar 1
D---------------------------------------------------------------------------|
A---------------------------------------------------------------------------|
F------------------------------------------------?*--7/9--10-9-12-----------|
C-00-0~-000-0~-0-0~-00-0~----00-0~-000-0~-0-0~-0-----x-x---x-x--x-----------|
G-00-0~-000-0~-0-0~-00-0~----00-0~-000-0~-0-0~-0-----5-7---8-7-10-----------|
C-00-0~-000-0~-0-0~-00-0~----00-0~-000-0~-0-0~-0----------------------------|

guitar 2
D---------------------------------------------------------------------------|
A---------------------------------------------------------------------------|
F---------------------------------------------------------------------------|
C-10-8-7----8-7-5-----------------------------------------------------------|
G-------10-------8----------------------------------------------------------|
C---------------------------------------------------------------------------|
DO this 12 times then tremolo pick it 4 times


guitar 1 (guitar 2 joins the second set of palm muted opens)
D----------------------------------------------------slide up---------------|
A----------------------------------------------------slide up---------------|
F----------------------------------------------------slide up---------------|
C-0-0-0--00000000------------------0-0-0--00000000--------------------------|
G-0-0-0--00000000------------------0-0-0--00000000--------------------------|
C-0-0-0--00000000---bass downslide-0-0-0--00000000--------------------------|
 palm muted

guitar 1 and 2
D---------------------------------------------------------------------------|
A---------------------------------------------------------------------------|
F----------------------------10~--12~--14~----------------------------------|
C-0-0-0--00000000-10~--8~-----x~---x~---x~----------------------------------|
G-0-0-0--00000000-10~--8~-----8~--10~--12~----------------------------------|
C-0-0-0--00000000-10~--8~---------------------------------------------------|

second time
D---------------------------------------------------------------------------|
A---------------------------------------------------------------------------|
F--------------------10--9--------------------------------------------------|
C-0-0-0--00000000-----x--x--------------------------------------------------|
G-0-0-0--00000000-----8--7--------------------------------------------------|
C-0-0-0--00000000-----------------------------------------------------------|


D---------------------------------------------------------------------------|
A---------------------------------------------------------------------------|
F--------------------------9-10-9-12----------------------------------------|
C-00-----0-10-8-7--7/8/7/8-x--x-x--x----------------------------------------|
G-00-7-8-0-----------------7--8-7-10----------------------------------------|
C-00-----0------------------------------------------------------------------|

D---------------------------------------------------------------------------|
A---------------------------------------------------------------------------|
F-00-----0-----------------10~----------------------------------------------|
C-00-5-7-0-7-5-3--3/5/3/5---x~----------------------------------------------|
G-00-----0------------------8~----------------------------------------------|
C---------------------------------------------------------------------------|

D---------------------------------------------------------------------------|
A---------------------------------------------------------------------------|
F---------------------------------------------------------------------------|
C----7-7-0-----7-7-0------7-7-0---7-7-0----7-7-0-----7-7-0-----7-7-0-5------|
G--7-------7/8-------10---------7-------7--------7/8------- 10--------------|
C---------------------------------------------------------------------------|
Don't think it's right but sounds pretty close. w/e

D---------------------------------------------------------------------------|
A---------------------------------------------------------------------------|
F---------------------------------------------------------------------------|
C---------------------------------------------------------------------------|
G-8~-10~-12~-10-------------------------------------------------------------|
C---------------------------------------------------------------------------|


D---------------------------------------------------------------------------|
A---------------------------------------------------------------------------|
F---------------------------------------------------------------------------|
C----0-2-7-5-3--------0~-----10---------------------------------------------|
G--3------------------0~--10-----10-----------------------------------------|
C---------------------0~----------------------------------------------------|
  tremolo palm mute

Then hold your finger on the first fret high E string and keep it held down and tap on 
frets while holding the first fret
D--66666666---5555---3333---------------------------------------------------|
A---------------------------------------------------------------------------|
F---------------------------------------------------------------------------|
C---------------------------------------------------------------------------|
G---------------------------------------------------------------------------|
C---------------------------------------------------------------------------|

second guitar does this
D---------------------------------------------------------------------------|
A---------------------------------------------------------------------------|
F---------------------------------------------------------------------------|
C-0-000-----------3~-5~-7~-5~-----------------------------------------------|
G-0-000-----------3~-5~-7~-5~-----------------------------------------------|
C-0-000-Pickslide 3~-5~-7~-5~-----------------------------------------------|

D---------------------------------------------------------------------------|
A---------------------------------------------------------------------------|
F---------------------------------------------------------------------------|
C-0-0-0-0-00000-0-00-----000000000-00000-0-00-------------------------------|
G-0-0-0-0-00000-0-00-----000000000-00000-0-00-------------------------------|
C-0-0-0-0-00000-0-00-----000000000-00000-0-00-------------------------------|

continue tapping holding the first fret but make them pull off(press then pull off the fret)
D--6-6-6-6--5-5---3-3-------------------------------------------------------|
A---------------------------------------------------------------------------|
F---------------------------------------------------------------------------|
C---------------------------------------------------------------------------|
G---------------------------------------------------------------------------|
C---------------------------------------------------------------------------|

hold the  10th fret G string and tap this pulling off(not even sure if this is right for 
second guitar or what)
D---------------------------------------------------------------------------|
A---------------------------------------------------------------------------|
F---------------------------------------------------------------------------|
C--15-15-15-15--13-13--12-12------------------------------------------------|
G---------------------------------------------------------------------------|
C---------------------------------------------------------------------------|

D---------------------------------------------------------------------------|
A---------------------------------------------------------------------------|
F---------------------------------------------------------------------------|
C-3-5-7-5--5-8-7--7-8-10--10-12--3-5-7-5-00-3-00-3-2p0----------------------|
G---------------------------------------------------------------------------|
C---------------------------------------------------------------------------|

D---------------------------------------------------------------------------|
A---------------------------------------------------------------------------|
F---------------------------------------------------------------------------|
C--3-5-7-5--5-8-7--7-8-10--10-12--3-5-7-5-00-3-00-2~-5~-3~------------------|
G---------------------------------------------------------------------------|
C---------------------------------------------------------------------------|

D---------------------------------------------------------------------------|
A---------------------------------------------------------------------------|
F--7-9-10-9--9-12-10--10-14-12--14-15---------------------------------------|
C---------------------------------------------------------------------------|
G---------------------------------------------------------------------------|
C---------------------------------------------------------------------------|

D---------------------------------------------------------------------------|
A---------------------------------------------------------------------------|
F--7-9-10-9--9-12-10--10-12-12-14-15-14~------------------------------------|
C---------------------------------------------------------------------------|
G---------------------------------------------------------------------------|
C---------------------------------------------------------------------------|


I know it's not perfect I just tabbed it for the fun of it <3
aim = SHOOTALEXXCORE  myspace= myspace.com/dgafalex
ask me questions if necessary or song you'd like me to tab :] <3
Добавлено: 27.07.2012
Другие материалы по этой песне:
  • Аккорды и текст

Страница создана 23.07.2012
http://primanota.ru/catherine/denigration-makes-john-doe-angry-chords.htm
Привет, Гость.
Предлагаем пройти революционный курс по гитаре.
Подарок от PrimaNota.Ru, забирай!