PrimaNota.ru - самый крупный в мире бесплатный архив песенных текстов, аккордов, табулатур и нот


Catherine - Dclxvi - таба, видео

Регистрация Запомнить меня
Войти через:  Facebook Google Twitter Vk Yandex Mail.ru

Catherine - Dclxvi - таба, видео

Печатать
Просмотров: 141
D|-----|
A|-----|
F|[9]--|
C|[9]--|
G|[9]--|
C|-----|
  
          1x                   2x            Last Time
D|-------------------|----------------------|--------|
A|-------------------|----------------------|--------|
F|-------------------|----------------------|--------|
C|----7-6-4---0-6----|--------7-6-4---0-6---|--------|
G|4-4-------4-----9--|4-4-4-4-------4-----9-|4-4-4-4-|
C|4-4----------------|4-4-4-4---------------|4-4-4-4-|

D|-----------------------------------|-----------------------------------|
A|-----------------------------------|-----------------------------------|
F|-----------------------------------|-----------------------------------|
C|-----------------------------------|-----------------------------------|
G|4-4-444--4-4-444--4-4-444--4-4-444-|2-2-222--2-2-222--2-2-222--2-2-222-|
C|4-4-444--4-4-444--4-4-444--4-4-444-|2-2-222--2-2-222--2-2-222--2-2-222-|
  * * ***  * * ***  * * ***  * * ***  * * ***  * * ***  * * ***  * * ***
D|-----------------------------------|-----------------------------------|
A|-----------------------------------|-----------------------------------|
D|-----------------------------------|-----------------------------------|
C|-----------------------------------|-----------------------------------|
G|0-0-000--0-0-000--0-0-000--0-0-000-|2-2-222--2-2-222--2-2-222--2-2-222-|
C|0-0-000--0-0-000--0-0-000--0-0-000-|2-2-222--2-2-222--2-2-222--2-2-222-|
  * * ***  * * ***  * * ***  * * ***  * * ***  * * ***  * * ***  * * ***
D|-----------------------------------|-----------------------------------|
A|-----------------------------------|-----------------------------------|
F|-----------------------------------|-----------------------------------|
C|-----------------------------------|-----------------------------------|
G|4-4-444--4-4-444--4-4-444--4-4-444-|2-2-222--2-2-222--2-2-222--2-2-222-|
C|4-4-444--4-4-444--4-4-444--4-4-444-|2-2-222--2-2-222--2-2-222--2-2-222-|
  * * ***  * * ***  * * ***  * * ***  * * ***  * * ***  * * ***  * * ***
D|-----------------------------------|-----------------------------------|
A|-----------------------------------|-----------------------------------|
F|-----------------------------------|-----------------------------------|
C|-----------------------------------|-----------------------------------|
G|0-0-000--0-0-000--0-0-000--0-0-000-|2-2-222--2-2-222--2-2-222--2-2-222-|
C|0-0-000--0-0-000--0-0-000--0-0-000-|2-2-222--2-2-222--2-2-222--2-2-222-|
  * * ***  * * ***  * * ***  * * ***  * * ***  * * ***  * * ***  * * ***
          1x                   2x            Last Time
D|-------------------|----------------------|--------|
A|-------------------|----------------------|--------|
F|-------------------|----------------------|--------|
C|----7-6-4---0-6----|--------7-6-4---0-6---|--------|
G|4-4-------4-----9--|4-4-4-4-------4-----9-|4-4-4-0~|
C|4-4----------------|4-4-4-4---------------|4-4-4-0~|



D|-----------------------------------------|
A|-----------------------------------------|
F|-----------------------------------------|
C|-----------------------------------------|
G|4-4-4-4-4-4-4-4-4-4-4-4-4-4-4-4-4-4-4-4-4|
C|4-4-4-4-4-4-4-4-4-4-4-4-4-4-4-4-4-4-4-4-4|
  * * * * * * * * * * * * * * * * * * * * *


D|--------------------------------------------------------------------|
A|--------------------------------------------------------------------|
F|--------------------------------------------------------------------|
C|--------------------------------------------------------------------|
G|4-444-4-4-444444-4-444-4-4-444444-4-444-4-4-444444-4-444-4-4-444444-|
C|4-444-4-4-444444-4-444-4-4-444444-4-444-4-4-444444-4-444-4-4-444444-|
  * *** * * ****** * *** * * ****** * *** * * ****** * *** * * ******

D|-------------------------|
A|-------------------------|
F|-------------------------|
C|9---77---6---7---666--7--|------------------4x
G|9---99---9---9---999--9--|
C|--0----0---0---0---------|
    *    *   *   *

D|---------------------------------------------------------------------|
A|---------------------------------------------------------------------|
F|--------------------------------11--------------------------------11-|
C|---------------------------------------------------------------------|
G|4-444-4-4-444444-4-444-4-4-444449-4-444-4-4-444444-4-444-4-4-444449--|
C|4-444-4-4-444444-4-444-4-4-44444--4-444-4-4-444444-4-444-4-4-44444---|
  * *** * * ****** * *** * * *****  * *** * * ****** * *** * * *****
D|----------------------------------------------|
A|----------------------------------------------|
F|----11-----------11---------------------------|
C|0--------0---0--------0-----------------------|
G|0---9----0---0---9----0----------------444444-|
C|0--------0---0--------0----------------444444-|


key
[]=harmonic
* =Palm Mute

sexpistols31@yahoo.com
myspace.com/373406646
Добавлено: 01.05.2012
Другие материалы по этой песне:
  • Аккорды и текст

Страница создана 01.05.2012
http://primanota.ru/catherine/dclxvi-chords.htm
Привет, Гость.
Предлагаем пройти революционный курс по гитаре.
Подарок от PrimaNota.Ru, забирай!