PrimaNota.ru - самый крупный в мире бесплатный архив песенных текстов, аккордов, табулатур и нот


Catherine - Convertible - текст песни, таба, видео

Регистрация Запомнить меня
Войти через:  Facebook Google Twitter Vk Yandex Mail.ru

Catherine - Convertible - текст песни, таба, видео

Печатать
Просмотров: 144
CATHERINE
"CONVERTIBLE"


Figure out which is guitar one and two
Have fun :] Mess with it a little if it don't sound right

D----------------------------------------------------------------------------|
A----------------------------------------------------------------------------|
F----------------------------------------------------------------------------|
C-----0000----0000--00-------------------------------------------------------|
G---5-0000--5-0000--00-------------------------------------------------------|
C-----0000----0000--00-------------------------------------------------------|

D---------------------------------------------------------------------------|
A---------------------------------------------------------------------------|
F-17--15--14--12------------------------------------------------------------|
C-x---x----x---x-----0000----0000-------------------------------------------|
G-15--13--12--10---5-0000--7-0000-------------------------------------------|
C--------------------0000----0000-------------------------------------------|

D---------------------------------------------------------------------------|
A---------------------------------------------------------------------------|
F-17--15--14--12---9-------10-----------------------------------------------|
C-x---x----x---x---x-0-0-0--x-0-0-0-----------------------------------------|
G-15--13--12--10---7-0-0-0--8-0-0-0-----------------------------------------|
C--------------------0-0-0----0-0-0-----------------------------------------|

D---------------------------------------------------------------------------|
A---------------------------------------------------------------------------|
F-17--15--14--12------------3p0------------------------9-9-9-10-------------|
C-x---x----x---x--3-----2/5------2--3--2-00000-2-00000-x-x-x-x--------------|
G-15--13--12--10--3-3/5----------2--3--2-00000-2-00000-7-7-7/8--------------|
C-----------------3--------------2--3--2-00000-2-00000----------------------|


D---------------------------------------------------------------------------|
A-----15---------------15---------------------------------------------------|
F--------14---------------14------------------------------------------------|
C-00--------17-15---00-------17-15--14h15p14--------------------------------|
G-00----------------00------------------------------------------------------|
C-00----------------00------------------------------------------------------|

D---------------------------------------------------------------------------|
A-----15----------15-----------------15-------------------------------------|
F--------14----------14-----------------14----------------------------------|
C-00--------00000-------17-15--00000--------17-15--14h15p14-----------------|
G-00--------00000--------------00000----------------------------------------|
C-00--------00000--------------00000----------------------------------------|

D---------------------------------------------------------------------------|
A---------------------------------------------------------------------------|
F-----15-----------------15-------------------------------------------------|
C-00-----14----------00-----14----------------------------------------------|
G-00---------17--15--00--------17-15--14h15p14------------------------------|
C-00-----------------00-----------------------------------------------------|

D---------------------------------------------------------------------------|
A---------------------------------------------------------------------------|
F-----15-----------15------------------15-----------------------------------|
C-00-----14-00000-----14--------00000-----14--------------------------------|
G-00--------00000--------17-15--00000--------17-15--14h15p14----------------|
C-00--------00000---------------00000---------------------------------------|

D---------------------------------------------------------------------------|
A---------------------------------------------------------------------------|
F-7777777777777777777777777777777777777777777777----------------------------|
C-xxxxxxxxxxxxxxxxxxxxxxxxxxxxxxxxxxxxxxxxxxxxxx----------------------------|
G-5555555555555555555555555555555555555555555555----------------------------|
C---------------------------------------------------------------------------|

D---------------------------------------------------------------------------|
A---------------------------------------------------------------------------|
F---------------------------------------------------------------------------|
C-00000-000000-0-0----00000-000-00000-000--0-0--0-5-4-2-7-5-4---------------|
G-00000-000000-0-0----00000-000-00000-000--0-0------------------------------|
C-00000-000000-0-0----00000-000-00000-000--0-0------------------------------|
  DDDDD DUDDDD D D    DUDUD DDD DUDUD DDD  D D


ALRIGHT whats exactly up there do the same with  the 5th fret and the third. listen for 
and you'll hear it.

D---------------------------------------------------------------------------|
A---------------------------------------------------------------------------|
F--7-------7----------------------------------------------------------------|
C--X-00000-X-00000--0-0-----------------------------------------------------|
G--5-00000-5-00000--0-0-----------------------------------------------------|
C----00000---00000--0-0-----------------------------------------------------|

D---------------------------------------------------------------------------|
A---------------------------------------------------------------------------|
F--7-7-777--7-6-6-6666------------------------------------------------------|
C--x-x-xxx--x-x-x-xxxx------------------------------------------------------|
G--5-5-555--5/4-4-4444------------------------------------------------------|
C---------------------------------------------------------------------------|

D---------------------------------------------------------------------------|
A---------------------------------------------------------------------------|
F--7--9--10-12--------------------------------------------------------------|
C--x--x--x--x---------------------------------------------------------------|
G--5--7--8--10--------------------------------------------------------------|
C---------------------------------------------------------------------------|

D---------------------------------------------------------------------------|
A---------------------------------------------------------------------------|
F---------14--15----14----14--10-----14--15--14---14------------------------|
C-000000----0----00----00-------0000----0--00--00---------------------------|
G-000000----0----00----00-------0000----0--00--00---------------------------|
C-000000----0----00----00-------0000----0--00--00---------------------------|

D---------------------------------------------------------------------------|
A---------------------------------------------------------------------------|
F-----12/10/12/10---------------14-12-10-9----------------------------------|
C-00---x--x--x--x--0-8-----------x--x--x-x----------------------------------|
G-00--10-8--10-8---0-8--10-8-7--12-10--8-7----------------------------------|
C-00---------------0-8------------------------------------------------------|

D---------------------------------------------------------------------------|
A---------------------------------------------------------------------------|
F---------------------------------------------------------------------------|
C-000-0-0--00-00-0-0----------------00000-0~--00000-0~----------------------|
G-000-0-0--00-00-0-0----------------00000-0~--00000-0~----------------------|
C-000-0-0--00-00-0-0----------------00000-0~--00000-0~----------------------|

D---------------------------------------------------------------------------|
A---------------------------------------------------------------------------|
F-17--15--14--12--------------------9-9-9-10--------------------------------|
C-x---x----x---x---2-00000-2-00000--x-x-x-x---------------------------------|
G-15--13--12--10---2-00000-2-00000--7-7-7/8---------------------------------|
C------------------2-00000-2-00000------------------------------------------|

D---17------------------------17--------------------------------------------|
A------18--15----------15--------18--15----------15-------------------------|
F-------------14----14------------------14----14----------------------------|
C----------------15------------------------15-------------------------------|
G---------------------------------------------------------------------------|
C---------------------------------------------------------------------------|

D---------------------------------------------------------------------------|
A---------------------------------------------------------------------------|
F---------------------------------------------------------------------------|
C-12-12--0--12-12--0--10-10--0--8-8--0--10-10--0--12------------------------|
G-12-12--0--12-12--0--10-10--0--8-8--0--10-10--0--12------------------------|
C-12-12--0--12-12--0--10-10--0--8-8--0--10-10--0--12------------------------|
or it could be this way not sure think its the second way its all P.Md

D---------------------------------------------------------------------------|
A---------------------------------------------------------------------------|
F---------------------------------------------------------------------------|
C--7-7--00--7-7--00--5-5--00--1-1--00--5-5--00--7-7-------------------------|
G--5-5--00--5-5--00--3-3--00--3-3--00--3-3--00--5-5-------------------------|
C-------00-------00----------------00-------00------------------------------|

D---12-----------------------12---------------------------------------------|
A-------13--10---------10-------13--10---------10---------------------------|
F--------------9-----9------------------9----9------------------------------|
C----------------10-----------------------10--------------------------------|
G---------------------------------------------------------------------------|
C---------------------------------------------------------------------------|

D---------------------------------------------------------------------------|
A---------------------------------------------------------------------------|
F--7--9--10-12--------------------------------------------------------------|
C--x--x--x--x---------------------------------------------------------------|
G--5--7--8--10--------------------------------------------------------------|
C---------------------------------------------------------------------------|

I dont think this is right but if you look at the other tab/song for denigration makes 
doe angry its similar

put ur left pointer finger on the 10th gret G string and hold it there
and press these frets like pull offs with ur right hand

D---------------------------------------------------------------------------|
A---------------------------------------------------------------------------|
F--14-14-15-14-14-14-15-17------14-14-14-14--12-12-12-12--------------------|
C---------------------------------------------------------------------------|
G---------------------------------------------------------------------------|
C---------------------------------------------------------------------------|

D---------------------------------------------------------------------------|
A---------------------------------------------------------------------------|
F-----15-----------15------------------15-----------------------------------|
C-00-----14-00000-----14--------00000-----14--------------------------------|
G-00--------00000--------17-15--00000--------17-15--14h15p14----------------|
C-00--------00000---------------00000---------------------------------------|


D---------------------------------------------------------------------------|
A-----15----------15-----------------15-------------------------------------|
F--------14----------14-----------------14----------------------------------|
C-00--------00000-------17-15--00000--------17-15--14h15p14-----------------|
G-00--------00000--------------00000----------------------------------------|
C-00--------00000--------------00000----------------------------------------|

D---------------------------------------------------------------------------|
A---------------------------------------------------------------------------|
F---------------------------------------------------------------------------|
C--00-00--00000----00-00----------------------------------------------------|
G--00-00--00000----00-00----------------------------------------------------|
C--00-00--00000----00-00----------------------------------------------------|

I KNOW its not perfect but everyone wants this song and msgs me for it
 this is about 88% accurate but w/e
anyone want another song msg me
AIM= WOWalexURanIDIOT
myspace = www.myspace.com/dgafalex
Добавлено: 07.05.2012
Другие материалы по этой песне:
  • Аккорды и текст

Страница создана 07.05.2012
http://primanota.ru/catherine/convertible-chords.htm
Привет, Гость.
Предлагаем пройти революционный курс по гитаре.
Подарок от PrimaNota.Ru, забирай!