PrimaNota.ru - самый крупный в мире бесплатный архив песенных текстов, аккордов, табулатур и нот


Catherine Wheel - Broken Head - аккорды и текст, таба, видео

Регистрация Запомнить меня
Войти через:  Facebook Google Twitter Vk Yandex Mail.ru

Catherine Wheel - Broken Head - аккорды и текст, таба, видео

Печатать
Просмотров: 157
Broken Head
Catherine Wheel
Song: Broken Bead
Transcribed by: gavila@whc.net -- Jorge Avila
Artist: Catherine Wheel
Album: Chrome
Tab and Chords [pro]

Tune down a half step - D# G# C# F# A# D#

key: b/ - bend up the following - b donates to keep string
				bent (at specified value)
     b - relase bend

Intro:
Guitar I
Repeat 2 times before whole band comes in. (Two measures)
3rd-6-6-6-6-6-6-6-6-6-6-6-6-6-6b/(1/2)-6b-6b-6b---------- repeat...

Guitar II
   -2-------2--2--2-2-------2-2---------------------------|
   -2-------2--2--2-2-------2-2--------2--2--2------------|
   -3-------3--3--3-3-------3-4/b(1/4)-4b-4b-4b-----------|
   -4-------4--4--4-4-------4-2--------2--2--2------------|
   -4-------4--4--4-4-------4-4--------4--4--4------------|
   -2-------2--2--2-2-------2-2---------------------------|


[F#]Step inside my head
See how much I see
Feel how much I[A#]feee[B]eel
[G#]Just this once I will

Show you something good
A planet with no roof
The leading edge of truth
It's waiting up there

[D]Broken he[A]ad spilling [B]air
What an [F#]atmosphere
[D]I really fe[A]el such a thrill[B] [B/b(1/2)]
[D]Broken mi[A]nd come ali[B]ve
Imagin[F#]ation shines
[D]I really fe[A]el such a thrill[B]
ooh ooh

Second verse same as first followed by chorus

Play guitar II like intro part

[F#]Come into the big sleep[B/F?]  (LOOK At TAB FoR TBiS SEctION)
Donnez moi la grande surprise
Keep keep the vision clear
Come close and bring it near, it's the mother, the mother...

-2-x-x-2-x-2-2-x-2-2--------2--2--2-|------------|
-2-x-x-2-x-2-2-x-2-2--------2--2--2-|------------|
-3-x-x-3-x-3-3-x-3-4/b(1/4)-4b-4b-4b|-6----------|
-4-x-x-4-x-4-4-x-4-2--------2--2--2-|-6----------|
-4-x-x-4-x-4-4-x-4-4--------4--4--4-|-4----------|
-2-x-x-2-x-2-2-x-2-2--------2--2--4-|-4----------|

Solo
[Chord Progression during solo -F# B/F?, D A B F#]

Chorus

End


Comments, suggestions, corrections, flames...
Email me at gavila@whc.net
Добавлено: 29.10.2013
Другие материалы по этой песне:
  • Аккорды и текст

Страница создана 14.06.2012
http://primanota.ru/catherine-wheel/broken-head-chords.htm
Привет, Гость.
Предлагаем пройти революционный курс по гитаре.
Подарок от PrimaNota.Ru, забирай!