PrimaNota.ru - самый крупный в мире бесплатный архив песенных текстов, аккордов, табулатур и нот


Cathedral - Upon Azrael's Wings - таба, видео

Регистрация Запомнить меня
Войти через:  Facebook Google Twitter Vk Yandex Mail.ru

Cathedral - Upon Azrael's Wings - таба, видео

Печатать
Просмотров: 115
Artist: Cathedral
Piece: Upon Azraels Wings
Instrument: Guitar

                               UPON AZRAEL'S WINGS
                            As recorded by Cathedral
             (From the 2005 Album THE GARDEN OF UNEARTHLY DELIGHTS)

Gtr I (B E A D F# B) - 'Untitled'
Gtr II (B E A D F# B) - 'Untitled'

 4/4
  Gtr I            Play 2x
|------------|------------| |---------|----|
|------------|------------| |---------|----|
|------------|------------| |---------|----|
|------------|------------| |-2-2-2-2-|----|
|-5-4--6-5-7-|-5-4--7-6-8-| |-2-2-2-2-|----|
|-3-2--4-3-5-|-3-2--5-4-6-| |-0-0-0-0-|----|


                   Play 2x
|------------|------------||---------|---------|
|------------|------------||---------|---------|
|------------|------------||---------|---------|
|------------|------------||-2-2-2-2-|-2-2-2-2-|
|-5-4--6-5-7-|-5-4--7-6-8-||-2-2-2-2-|-2-2-2-2-|
|-3-2--4-3-5-|-3-2--5-4-6-||-0-0-0-0-|-0-0-0-0-|




|-----------------|---------------|-----------------|---------------------|
|-----------------|---------------|-----------------|---------------------|
|-----------------|---------------|-----------------|---------------------|
|-----------------|---------------|-----------------|---------------------|
|-6-6-6-6-6-6-6-6-|-6-6-6-6-6--10-|-9-9-9-9-9-9-9-9-|-9-9-9-9-8S9S8-7S8s7-|
|-4-4-4-4-4-4-4-4-|-4-4-4-4-4---8-|-7-7-7-7-7-7-7-7-|-7-7-7-7-6S7S6-5S6s5-|

|-----------------|---------------|-----------------|---------------------|
|-----------------|---------------|-----------------|---------------------|
|-----------------|---------------|-----------------|---------------------|
|-----------------|---------------|-----------------|---------------------|
|-6-6-6-6-6-6-6-6-|-6-6-6-6-6--10-|-9-9-9-9-9-9-9-9-|-2--3--2--5--7--4----|
|-4-4-4-4-4-4-4-4-|-4-4-4-4-4---8-|-7-7-7-7-7-7-7-7-|-0--1--0--3--5--2----|


|-----------------|---------------|-----------------|---------------------|
|-----------------|---------------|-----------------|---------------------|
|-----------------|---------------|-----------------|---------------------|
|-----------------|---------------|-----------------|---------------------|
|-6-6-6-6-6-6-6-6-|-6-6-6-6-6--10-|-9-9-9-9-9-9-9-9-|-9-9-9-9-8S9S8-7S8s7-|
|-4-4-4-4-4-4-4-4-|-4-4-4-4-4---8-|-7-7-7-7-7-7-7-7-|-7-7-7-7-6S7S6-5S6s5-|

|-----------------|---------------|-----------------|---------------------|
|-----------------|---------------|-----------------|---------------------|
|-----------------|---------------|-----------------|---------------------|
|-----------------|---------------|-----------------|---------------------|
|-6-6-6-6-6-6-6-6-|-6-6-6-6-6--10-|-9-9-9-9-9-9-9-9-|-2--3--2--5--7--4----|
|-4-4-4-4-4-4-4-4-|-4-4-4-4-4---8-|-7-7-7-7-7-7-7-7-|-0--1--0--3--5--2----|





                   Play 2x                    Play 2x                    Play 2x
|-------------------------||-------------------------||-------------------------|
|-------------------------||-------------------------||-------------------------|
|-------------------------||-------------------------||-------------------------|
|-------------------------||-------------------------||-------------------------|
|-------------------------||-4-4-4-4-4-4-4-4-4-4-4-4-||-3-3-3-3-3-3-3-3-3-3-3-3-|
|-5-5-5-5-5-5-5-5-5-5-5-5-||-------------------------||-------------------------|


|-------------------------|---------------------------|----|
|-------------------------|---------------------------|----|
|-------------------------|---------------------------|----|
|-------------------------|---------------------------|----|
|-------------------------|---------------------------|----|
|-2-2-2-2-2-2-2-2-2-2-2-2-|-1-1-1-1-1-1-2p1h2p1h2p1h2-|----|


                   Play 2x                    Play 2x                    Play 2x
|-------------------------||-------------------------||-------------------------|
|-------------------------||-------------------------||-------------------------|
|-------------------------||-------------------------||-------------------------|
|-------------------------||-------------------------||-------------------------|
|-------------------------||-4-4-4-4-4-4-4-4-4-4-4-4-||-3-3-3-3-3-3-3-3-3-3-3-3-|
|-5-5-5-5-5-5-5-5-5-5-5-5-||-------------------------||-------------------------|


|-------------------------|-------------------------|----|
|-------------------------|-------------------------|----|
|-------------------------|-------------------------|----|
|-------------------------|-------------------------|----|
|-------------------------|-------------------------|----|
|-2-2-2-2-2-2-2-2-2-2-2-2-|-1-1-1-1-1-1-1-1-1-1-1-1-|----|


|-----------------|---------------|-----------------|---------------------|
|-----------------|---------------|-----------------|---------------------|
|-----------------|---------------|-----------------|---------------------|
|-----------------|---------------|-----------------|---------------------|
|-6-6-6-6-6-6-6-6-|-6-6-6-6-6--10-|-9-9-9-9-9-9-9-9-|-9-9-9-9-8S9S8-7S8s7-|
|-4-4-4-4-4-4-4-4-|-4-4-4-4-4---8-|-7-7-7-7-7-7-7-7-|-7-7-7-7-6S7S6-5S6s5-|

|-----------------|---------------|-----------------|---------------------|
|-----------------|---------------|-----------------|---------------------|
|-----------------|---------------|-----------------|---------------------|
|-----------------|---------------|-----------------|---------------------|
|-6-6-6-6-6-6-6-6-|-6-6-6-6-6--10-|-9-9-9-9-9-9-9-9-|-2--3--2--5--7--4----|
|-4-4-4-4-4-4-4-4-|-4-4-4-4-4---8-|-7-7-7-7-7-7-7-7-|-0--1--0--3--5--2----|


|-----------------|---------------|-----------------|---------------------|
|-----------------|---------------|-----------------|---------------------|
|-----------------|---------------|-----------------|---------------------|
|-----------------|---------------|-----------------|---------------------|
|-6-6-6-6-6-6-6-6-|-6-6-6-6-6--10-|-9-9-9-9-9-9-9-9-|-9-9-9-9-8S9S8-7S8s7-|
|-4-4-4-4-4-4-4-4-|-4-4-4-4-4---8-|-7-7-7-7-7-7-7-7-|-7-7-7-7-6S7S6-5S6s5-|

|-----------------|---------------|-----------------|---------------------|
|-----------------|---------------|-----------------|---------------------|
|-----------------|---------------|-----------------|---------------------|
|-----------------|---------------|-----------------|---------------------|
|-6-6-6-6-6-6-6-6-|-6-6-6-6-6--10-|-9-9-9-9-9-9-9-9-|-2--3--2--5--7--4----|
|-4-4-4-4-4-4-4-4-|-4-4-4-4-4---8-|-7-7-7-7-7-7-7-7-|-0--1--0--3--5--2----|



                   Play 2x                    Play 2x                    Play 2x
|-------------------------||-------------------------||-------------------------|
|-------------------------||-------------------------||-------------------------|
|-------------------------||-------------------------||-------------------------|
|-------------------------||-------------------------||-------------------------|
|-------------------------||-4-4-4-4-4-4-4-4-4-4-4-4-||-3-3-3-3-3-3-3-3-3-3-3-3-|
|-5-5-5-5-5-5-5-5-5-5-5-5-||-------------------------||-------------------------|


|-------------------------|---------------------------|----|
|-------------------------|---------------------------|----|
|-------------------------|---------------------------|----|
|-------------------------|---------------------------|----|
|-------------------------|---------------------------|----|
|-2-2-2-2-2-2-2-2-2-2-2-2-|-1-1-1-1-1-1-2p1h2p1h2p1h2-|----|


                   Play 2x                    Play 2x                    Play 2x
|-------------------------||-------------------------||-------------------------|
|-------------------------||-------------------------||-------------------------|
|-------------------------||-------------------------||-------------------------|
|-------------------------||-------------------------||-------------------------|
|-------------------------||-4-4-4-4-4-4-4-4-4-4-4-4-||-3-3-3-3-3-3-3-3-3-3-3-3-|
|-5-5-5-5-5-5-5-5-5-5-5-5-||-------------------------||-------------------------|


|-------------------------|-------------------------|----|
|-------------------------|-------------------------|----|
|-------------------------|-------------------------|----|
|-------------------------|-------------------------|----|
|-------------------------|-------------------------|----|
|-2-2-2-2-2-2-2-2-2-2-2-2-|-1-1-1-1-1-1-1-1-1-1-1-1-|----|



           Play 4x   Hardcore/Punk riff
|-----------------| |-----------|---------|-----------|---------|----|
|-----------------| |-----------|---------|-----------|---------|----|
|-----------------| |-----------|---------|-----------|---------|----|
|-4S3-5S4-6S5-7S6-| |-7-7-7-7-7-|-7-7-7-7-|-7-7-7-7-7-|-7-7-5-5-|----|
|-2S1-3S2-4S3-5S4-| |-5-5-5-5-5-|-5-5-5-5-|-5-5-5-5-5-|-5-5-3-3-|----|
|-----------------| |-----------|---------|-----------|---------|----|

                                     Play 2x   On 2nd ending
|-----------|---------|-----------|---------||--------|
|-----------|---------|-----------|---------||--------|
|-----------|---------|-----------|---------||--------|
|-6-6-6-6-6-|-6-6-6-6-|-6-6-6-6-6-|-8-8-6-6-||--8-8---|
|-4-4-4-4-4-|-4-4-4-4-|-4-4-4-4-4-|-6-6-4-4-||--6-6---|
|-----------|---------|-----------|---------||--------|



                                             Play 2x
|------------|-----------|------------|-------------|----|
|------------|-----------|------------|-------------|----|
|------------|-----------|------------|-------------|----|
|-9-10-11-10-|-11-12-13--|-9-10-11-10-|-12S13-12S13-|----|
|-7--8--9--8-|--9-10-11--|-7--8--9--8-|-10S11-10S11-|----|
|------------|-----------|------------|-------------|----|


                   Play 2x
|------------|------------| 
|------------|------------| 
|------------|------------| 
|------------|------------| 
|-5-4--6-5-7-|-5-4--7-6-8-| 
|-3-2--4-3-5-|-3-2--5-4-6-|




|-------|--------|-------------|------|------------|------|
|-------|--------|-------------|------|------------|------|
|-------|--------|-------------|------|------------|------|
|-------|--------|-------------|------|------------|------|
|-------|------2-|-1-----------|------|----2b3r2-2-|-1----|
|-3-----|-4------|-------------|-3----|-4----------|------|



Bluesy passage
|---3---0----|-----------|---3---0--|-----------|----|
|---0---0----|-----------|---0---0--|-----------|----|
|---0---0----|-3-3-2-2-1-|---0---0--|-5-5-4-4-3-|----|
|---2---2----|-----------|---2---2--|-----------|----|
|------------|-----------|----------|-----------|----|
|-0---0------|-----------|-0---0----|-----------|----|


|---3---0---0-|-----------|---3---0--|-----------|----|
|---0---0-----|-----------|---0---0--|-----------|----|
|---0---0-----|-3-3-2-2-1-|---0---0--|-5-5-4-4-3-|----|
|---2---2-----|-----------|---2---2--|-----------|----|
|-------------|-----------|----------|-----------|----|
|-0---0-------|-----------|-0---0----|-----------|----|


                    Play 2x                     Play 2x
||----------|--------------|   |---------|-------------|----|
||o---------|-------------o|   |---------|-------------|----|
||----------|--------------|   |---------|-------------|----|
||--3-5-2-4-|-3-3-5-2-4-4--|   |-6-8-5-7-|-6-6-8-5-7-7-|----|
||o-4-6-3-5-|-4-4-6-3-5-5-o|   |-4-6-3-5-|-4-4-6-3-5-5-|----|
||----------|--------------|   |---------|-------------|----|


|-----------------| 
|-----------------| 
|-----------------| 
|-4S3-5S4-6S5-7S6-| 
|-2S1-3S2-4S3-5S4-|
|-----------------|


|-----------------|---------------|-----------------|---------------------|
|-----------------|---------------|-----------------|---------------------|
|-----------------|---------------|-----------------|---------------------|
|-----------------|---------------|-----------------|---------------------|
|-6-6-6-6-6-6-6-6-|-6-6-6-6-6--10-|-9-9-9-9-9-9-9-9-|-9-9-9-9-8S9S8-7S8s7-|
|-4-4-4-4-4-4-4-4-|-4-4-4-4-4---8-|-7-7-7-7-7-7-7-7-|-7-7-7-7-6S7S6-5S6s5-|

|-----------------|---------------|-----------------|---------------------|
|-----------------|---------------|-----------------|---------------------|
|-----------------|---------------|-----------------|---------------------|
|-----------------|---------------|-----------------|---------------------|
|-6-6-6-6-6-6-6-6-|-6-6-6-6-6--10-|-9-9-9-9-9-9-9-9-|-2--3--2--5--7--4----|
|-4-4-4-4-4-4-4-4-|-4-4-4-4-4---8-|-7-7-7-7-7-7-7-7-|-0--1--0--3--5--2----|


|-----------------|---------------|-----------------|---------------------|
|-----------------|---------------|-----------------|---------------------|
|-----------------|---------------|-----------------|---------------------|
|-----------------|---------------|-----------------|---------------------|
|-6-6-6-6-6-6-6-6-|-6-6-6-6-6--10-|-9-9-9-9-9-9-9-9-|-9-9-9-9-8S9S8-7S8s7-|
|-4-4-4-4-4-4-4-4-|-4-4-4-4-4---8-|-7-7-7-7-7-7-7-7-|-7-7-7-7-6S7S6-5S6s5-|

|-----------------|---------------|-----------------|---------------------|
|-----------------|---------------|-----------------|---------------------|
|-----------------|---------------|-----------------|---------------------|
|-----------------|---------------|-----------------|---------------------|
|-6-6-6-6-6-6-6-6-|-6-6-6-6-6--10-|-9-9-9-9-9-9-9-9-|-2--3--2--5--7--4----|
|-4-4-4-4-4-4-4-4-|-4-4-4-4-4---8-|-7-7-7-7-7-7-7-7-|-0--1--0--3--5--2----|



                   Play 2x                    Play 2x                    Play 2x
|-------------------------||-------------------------||-------------------------|
|-------------------------||-------------------------||-------------------------|
|-------------------------||-------------------------||-------------------------|
|-------------------------||-------------------------||-------------------------|
|-------------------------||-4-4-4-4-4-4-4-4-4-4-4-4-||-3-3-3-3-3-3-3-3-3-3-3-3-|
|-5-5-5-5-5-5-5-5-5-5-5-5-||-------------------------||-------------------------|


|-------------------------|---------------------------|----|
|-------------------------|---------------------------|----|
|-------------------------|---------------------------|----|
|-------------------------|---------------------------|----|
|-------------------------|---------------------------|----|
|-2-2-2-2-2-2-2-2-2-2-2-2-|-1-1-1-1-1-1-2p1h2p1h2p1h2-|----|


                   Play 2x                    Play 2x                    Play 2x
|-------------------------||-------------------------||-------------------------|
|-------------------------||-------------------------||-------------------------|
|-------------------------||-------------------------||-------------------------|
|-------------------------||-------------------------||-------------------------|
|-------------------------||-4-4-4-4-4-4-4-4-4-4-4-4-||-3-3-3-3-3-3-3-3-3-3-3-3-|
|-5-5-5-5-5-5-5-5-5-5-5-5-||-------------------------||-------------------------|


|-------------------------|-------------------------|----|
|-------------------------|-------------------------|----|
|-------------------------|-------------------------|----|
|-------------------------|-------------------------|----|
|-------------------------|-------------------------|----|
|-2-2-2-2-2-2-2-2-2-2-2-2-|-1-1-1-1-1-1-1-1-1-1-1-1-|----|




                   Play 2x   Play this chords 'til fade out
|------------|------------| |---------|---------|
|------------|------------| |---------|---------|
|------------|------------| |---------|---------|
|------------|------------| |-2-2-2-2-|-2-2-2-2-|
|-5-4--6-5-7-|-5-4--7-6-8-| |-2-2-2-2-|-2-2-2-2-|
|-3-2--4-3-5-|-3-2--5-4-6-| |-0-0-0-0-|-0-0-0-0-|
Добавлено: 10.09.2015
Другие материалы по этой песне:
  • Аккорды и текст

Страница создана 10.09.2015
http://primanota.ru/cathedral/upon-azraels-wings-chords.htm
Привет, Гость.
Предлагаем пройти революционный курс по гитаре.
Подарок от PrimaNota.Ru, забирай!