PrimaNota.ru - самый крупный в мире бесплатный архив песенных текстов, аккордов, табулатур и нот


Cathedral - Tuckers Ruck - таба, видео

Регистрация Запомнить меня
Войти через:  Facebook Google Twitter Vk Yandex Mail.ru

Cathedral - Tuckers Ruck - таба, видео

Печатать
Просмотров: 83
Artist: Cathedral
Piece: Tuckers Ruck
Instrument: Guitar

                                  TUCKER'S RUCK
                            As recorded by Cathedral
                (From the 1996 Album SUPERNATURAL BIRTH MACHINE)

Gtr I (C F Bb Eb G C) - 'Untitled'
Gtr II (C F Bb Eb G C) - 'Untitled'

 4/4
  
|-----|
|-----|
|-----|
|-----|Drums and bass
|-----|
|-----|


 Gtr I                           
|-----------------|----------------------|
|-----------------|----------------------|
|-----------------|----------------------|
|-----------------|----------------------|
|-5-5-3-5---------|-5-5-5-3-5------------|
|-----------------|----------------------|   Play 4x
|
| Gtr II
|-----------------|----------------------|
|-----------------|----------------------|
|-----------------|----------------------|
|-----------------|----------------------|
|-----------------|----------------------|
|---------2-3-2-1-|------------2-2-3-2-1-|



|-----|
|-----|
|-----|
|-----| Bass
|-----|
|-----|

  Gtr I                           Play 4x
|-----------------|----------------------||---------|----------------|
|-----------------|----------------------||---------|-------5-7-8----|
|-----------------|----------------------||---------|-4-5-6----------|
|-----------------|----------------------||---------|----------------|
|-5-5-3-5---------|-5-5-5-3-5------------||---------|----------------|
|-----------------|----------------------||---------|----------------|
|
| Gtr II
|-----------------|----------------------||---------|----------------|
|-----------------|----------------------||---------|-------5-7-8----|
|-----------------|----------------------||---------|-4-5-6----------|
|-----------------|----------------------||---------|----------------|
|-----------------|----------------------||---------|----------------|
|---------2-3-2-1-|------------2-2-3-2-1-||---------|----------------|


 Gtrs I, II
|-----------------------------------------------------|
|-----------------------------------------------------|
|-----------------------------------------------------|
|--7----7-----x------7---9--9-----9--9--9-------------|
|--5----5-----x------5---7--7-----7--7--7-------------|
|-----------------------------------------------------|
|
|Gtr.III
|-----------------------------------------------------|
|---------------15--12--12-13-12h13p12----------------|
|------------12------------------------14-12h14p12----|
|-12-12---14---------------------------------------14-|
|-----------------------------------------------------|
|-----------------------------------------------------|


|-----------------------------------------------------|
|-----------------------------------------------------|
|-----------------------------------------------------|
|--7----7-----x----7-----9-9--------9-----9-----9-----|
|--5----5-----x----5-----7-7--------7-----7-----7-----|
|-----------------------------------------------------|
|
|Gtr.III
|-------------------------------------------------------------|
|---------------15---15S17---15b17-15b17-15b17-15b17----------|
|------------12---------------------------------------16--14/-|
|-12-12---14--------------------------------------------------|
|-------------------------------------------------------------|
|-------------------------------------------------------------|


   D5  D5        D5 E5E5       E5  E5  E5       
|-----------------------------------------------|
|-----------------------------------------------|
|---------Guit.II-------------------------------|
|--7----7--7S=9--7---9-9--------9---9--9--------|
|--5----5--7S=9--5---7-7--------7---7--7--------|
|---------Guit.I--------------------------------|
|
|Gtr.III        
|----------------------------------------------------|
|---------------15--12---12h13p12--------------------|
|------------12-------------------14-12-14-12--------|
|-12-12---14----------------------------------15-14--|
|----------------------------------------------------|
|----------------------------------------------------|

   D5  D5        D5   E5  E5   E5 E5 E5          
|---------------------------------------------|
|---------------------------------------------|
|---------Guit.II-----------------------------|
|--7----7--7S=9--7-----9--9-----9--9--9-------|
|--5----5--7S=9--5-----7--7-----7--7--7-------|
|---------Guit.I------------------------------|
|
|Gtr.III
|---------------------------------------------|
|---------------15-15S17-15h17p15h17p15h17p15-|
|------------12-------------------------------|
|-12-12---14----------------------------------|
|---------------------------------------------|
|---------------------------------------------|


|--------------------|-----------------|
|--------------------|-----------------|
|--------Guit.II-----|-----------------|
|--7---7---7s9-----7-|-9/------7/------|
|--5---5---7s9-----5-|-7/------5/------|
|--------Guit.I------|-----------------|
|
|--------------------|-----------------|
|----------------15--|-17S=15--15S=13--|
|------------12------|-----------------|
|-12-12---14---------|-----------------|
|--------------------|-----------------|
|--------------------|-----------------|


|-------------|------------|----------------|
|-------------|------------|----------------|
|-------------|------------|----------------|
|--5-------2--|------------|----------------|
|--3-------0--|----------5-|--5--5--5--5--5-|
|-------------|----------3-|--3--3--3--3--3-|
|
|-------------|------------|----------------|
|-13S=10--10--|-10S=12-----|----------------|
|-------------|---------12-|-12-12-12-12-12-|
|-------------|------------|----------------|
|-------------|------------|----------------|
|-------------|------------|----------------|


 Gtr I                           
|-----------------|----------------------|
|-----------------|----------------------|
|-----------------|----------------------|
|-----------------|----------------------|
|-5-5-3-5---------|-5-5-5-3-5------------|
|-----------------|----------------------|   Play 4x
|
|Gtr II
|-----------------|----------------------|
|-----------------|----------------------|
|-----------------|----------------------|
|-----------------|----------------------|
|-----------------|----------------------|
|---------2-3-2-1-|------------2-2-3-2-1-|




 
|-----|
|-----|
|-----|
|-----| Bass
|-----|
|-----|


 Gtr I                           Play 4x
|-----------------|----------------------||---------|----------------|
|-----------------|----------------------||---------|-------5-7-8----|
|-----------------|----------------------||---------|-4-5-6----------|
|-----------------|----------------------||---------|----------------|
|-5-5-3-5---------|-5-5-5-3-5------------||---------|----------------|
|-----------------|----------------------||---------|----------------|
|
|Gtr II
|-----------------|----------------------||---------|----------------|
|-----------------|----------------------||---------|-------5-7-8----|
|-----------------|----------------------||---------|-4-5-6----------|
|-----------------|----------------------||---------|----------------|
|-----------------|----------------------||---------|----------------|
|---------2-3-2-1-|------------2-2-3-2-1-||---------|----------------|






  Gtrs I, II
|-----------------------------------------------------|
|-----------------------------------------------------|
|-----------------------------------------------------|
|--7----7-----x------7---9--9-----9--9--9-------------|
|--5----5-----x------5---7--7-----7--7--7-------------|
|-----------------------------------------------------|
|
|Gtr.III (Gaz makes another licks not so different form these ones)
|-----------------------------------------------------|
|---------------15--12--12-13-12h13p12----------------|
|------------12------------------------14-12h14p12----|
|-12-12---14---------------------------------------14-|
|-----------------------------------------------------|
|-----------------------------------------------------|


|-----------------------------------------------------|
|-----------------------------------------------------|
|-----------------------------------------------------|
|--7----7-----x----7-----9-9--------9-----9-----9-----|
|--5----5-----x----5-----7-7--------7-----7-----7-----|
|-----------------------------------------------------|
|
|Gtr.III(Gaz makes another licks not so different form these ones)
|-----------------------------------------------------|
|---------------15---15S17---15b17-15b17-15b17-15b17--|
|------------12---------------------------------------|
|-12-12---14------------------------------------------|
|-----------------------------------------------------|
|-----------------------------------------------------|


   D5  D5        D5 E5E5       E5  E5  E5       
|-----------------------------------------------|
|-----------------------------------------------|
|---------Guit.II-------------------------------|
|--7----7--7S=9--7---9-9--------9---9--9--------|
|--5----5--7S=9--5---7-7--------7---7--7--------|
|---------Guit.I--------------------------------|
|
|Gtr.III(Gaz makes another licks not so different form these ones)        
|----------------------------------------------------|
|---------------15--12---12h13p12--------------------|
|------------12-------------------14-12-14-12--------|
|-12-12---14----------------------------------15-14--|
|----------------------------------------------------|
|----------------------------------------------------|

   D5  D5        D5   E5  E5   E5 E5 E5          
|---------------------------------------------|
|---------------------------------------------|
|---------Guit.II-----------------------------|
|--7----7--7S=9--7-----9--9-----9--9--9-------|
|--5----5--7S=9--5-----7--7-----7--7--7-------|
|---------Guit.I------------------------------|
|
|Gtr.III(Gaz makes another licks not so different form these ones)
|---------------------------------------------|
|---------------15-15S17-15h17p15h17p15h17p15-|
|------------12-------------------------------|
|-12-12---14----------------------------------|
|---------------------------------------------|
|---------------------------------------------|


|--------------------|-----------------|
|--------------------|-----------------|
|--------Guit.II-----|-----------------|
|--7---7---7s9-----7-|-9/------7/------|
|--5---5---7s9-----5-|-7/------5/------|
|--------Guit.I------|-----------------|
|
|--------------------|-----------------|
|----------------15--|-17S=15--15S=13--|
|------------12------|-----------------|
|-12-12---14---------|-----------------|
|--------------------|-----------------|
|--------------------|-----------------|


|-------------|------------|----------------|
|-------------|------------|----------------|
|-------------|------------|----------------|
|--5-------2--|------------|----------------|
|--3-------0--|----------5-|--5--5--5--5--5-|
|-------------|----------3-|--3--3--3--3--3-|
|
|-------------|------------|----------------|
|-13S=10--10--|-10S=12-----|----------------|
|-------------|---------12-|-12-12-12-12-12-|
|-------------|------------|----------------|
|-------------|------------|----------------|
|-------------|------------|----------------|



 Rhythm behind the solo(Got to have groove to play)
|---------------------------||----|
|---------------------------||----|
|-7-7-5-7-7-5-7-7-7-7-5-7-5-||----|
|---------------------------||----|
|---------------------------||----|
|---------------------------||----|



 Gtr I                           
|-----------------|----------------------|
|-----------------|----------------------|
|-----------------|----------------------|
|-----------------|----------------------|
|-5-5-3-5---------|-5-5-5-3-5------------|
|-----------------|----------------------|   Play 4x
|
|Gtr II
|-----------------|----------------------|
|-----------------|----------------------|
|-----------------|----------------------|
|-----------------|----------------------|
|-----------------|----------------------|
|---------2-3-2-1-|------------2-2-3-2-1-|



|-----|
|-----|
|-----|
|-----| Bass
|-----|
|-----|


 Gtr I                           Play 4x
|-----------------|----------------------||---------|----------------|
|-----------------|----------------------||---------|-------5-7-8----|
|-----------------|----------------------||---------|-4-5-6----------|
|-----------------|----------------------||---------|----------------|
|-5-5-3-5---------|-5-5-5-3-5------------||---------|----------------|
|-----------------|----------------------||---------|----------------|
|
|Gtr II
|-----------------|----------------------||---------|----------------|
|-----------------|----------------------||---------|-------5-7-8----|
|-----------------|----------------------||---------|-4-5-6----------|
|-----------------|----------------------||---------|----------------|
|-----------------|----------------------||---------|----------------|
|---------2-3-2-1-|------------2-2-3-2-1-||---------|----------------|






  Gtrs I, II
|-----------------------------------------------------|
|-----------------------------------------------------|
|-----------------------------------------------------|
|--7----7-----x------7---9--9-----9--9--9-------------|
|--5----5-----x------5---7--7-----7--7--7-------------|
|-----------------------------------------------------|
|
|Gtr.III (Gaz makes another licks not so different form these ones)
|-----------------------------------------------------|
|---------------15--12--12-13-12h13p12----------------|
|------------12------------------------14-12h14p12----|
|-12-12---14---------------------------------------14-|
|-----------------------------------------------------|
|-----------------------------------------------------|


|-----------------------------------------------------|
|-----------------------------------------------------|
|-----------------------------------------------------|
|--7----7-----x----7-----9-9--------9-----9-----9-----|
|--5----5-----x----5-----7-7--------7-----7-----7-----|
|-----------------------------------------------------|
|
|Gtr.III(Gaz makes another licks not so different form these ones)
|-----------------------------------------------------|
|---------------15---15S17---15b17-15b17-15b17-15b17--|
|------------12---------------------------------------|
|-12-12---14------------------------------------------|
|-----------------------------------------------------|
|-----------------------------------------------------|


   D5  D5        D5 E5E5       E5  E5  E5       
|-----------------------------------------------|
|-----------------------------------------------|
|---------Guit.II-------------------------------|
|--7----7--7S=9--7---9-9--------9---9--9--------|
|--5----5--7S=9--5---7-7--------7---7--7--------|
|---------Guit.I--------------------------------|
|
|Gtr.III(Gaz makes another licks not so different form these ones)        
|----------------------------------------------------|
|---------------15--12---12h13p12--------------------|
|------------12-------------------14-12-14-12--------|
|-12-12---14----------------------------------15-14--|
|----------------------------------------------------|
|----------------------------------------------------|

   D5  D5        D5   E5  E5   E5 E5 E5          
|---------------------------------------------|
|---------------------------------------------|
|---------Guit.II-----------------------------|
|--7----7--7S=9--7-----9--9-----9--9--9-------|
|--5----5--7S=9--5-----7--7-----7--7--7-------|
|---------Guit.I------------------------------|
|
|Gtr.III(Gaz makes another licks not so different form these ones)
|---------------------------------------------|
|---------------15-15S17-15h17p15h17p15h17p15-|
|------------12-------------------------------|
|-12-12---14----------------------------------|
|---------------------------------------------|
|---------------------------------------------|


|--------------------|-----------------|
|--------------------|-----------------|
|--------Guit.II-----|-----------------|
|--7---7---7s9-----7-|-9/------7/------|
|--5---5---7s9-----5-|-7/------5/------|
|--------Guit.I------|-----------------|
|
|--------------------|-----------------|
|----------------15--|-17S=15--15S=13--|
|------------12------|-----------------|
|-12-12---14---------|-----------------|
|--------------------|-----------------|
|--------------------|-----------------|


|-------------|------------|----------------*|
|-------------|------------|----------------*|
|-------------|------------|----------------*|
|--5-------2--|------------|----------------*|
|--3-------0--|----------5-|--5--5--5--5--5-*|
|-------------|----------3-|--3--3--3--3--3-*|
|
|-------------|------------|----------------*|
|-13S=10--10--|-10S=12-----|----------------*|
|-------------|---------12-|-12-12-12-12-12-*|
|-------------|------------|----------------*|
|-------------|------------|----------------*|
|-------------|------------|----------------*|
Добавлено: 10.09.2015
Другие материалы по этой песне:
  • Аккорды и текст

Страница создана 10.09.2015
http://primanota.ru/cathedral/tuckers-ruck-chords.htm
Привет, Гость.
Предлагаем пройти революционный курс по гитаре.
Подарок от PrimaNota.Ru, забирай!