PrimaNota.ru - самый крупный в мире бесплатный архив песенных текстов, аккордов, табулатур и нот


Cathedral - Suicide Asteroid - текст песни, таба, видео

Регистрация Запомнить меня
Войти через:  Facebook Google Twitter Vk Yandex Mail.ru

Cathedral - Suicide Asteroid - текст песни, таба, видео

Печатать
Просмотров: 132
Artist: Cathedral
Piece: Suicide Asteroid
Instrument: Guitar

                                SUICIDE ASTEROID
                            As recorded by Cathedral
                (From the 1996 Album SUPERNATURAL BIRTH MACHINE)

Gtr I (C F Bb Eb G C) - 'Untitled'
Gtr II (C F Bb Eb G C) - 'Untitled'
   4/4
    Gtr I
||--------------------|-----------------|---------------------|----|
||o-------------------|-----------------|---------------------|----|
||--------------------|-----------------|---------------------|----|
||--------------------|-----------------|---------------------|----|
||o-6h8-8-8p6---6-----|-8p6---8S9-8---6-|-6h8-8-8p6---6-------|----|
||------------8---8-8-|-----8-------8---|-----------8---8-8-8-|----|

                Play 2x    2.
|----------------------||-------------------|       |----------------|-----------|
|---------------------o||-------------------|       |----------------|-----------|
|----------------------||-------------------|       |----------------|-----------|
|----------------------||-------------------|       |-----8----------|-----------|
|-6h8p6-5-5h6p5-----6-o||-6h8p6-5-5h6p5-----|       |---6---6--6-6-6-|-8-7-6--6--|
|---------------6-8----||---------------/6/-|       |-8--------------|-----4--4--|

                        Play 2x          Thru,thru,thru,thru...
|----------------|-------------|-----------------|---------------|---|
|----------------|-------------|-----------------|---------------|---|
|----------------|---8S10S8--8-|-----------------|---------------|---|
|-----8----------|---6S=8S6--6-|-----------------|---------------|---|
|---6---6--6-6-6-|-8-----------|-----------------|---------------|---|
|-8--------------|-------------|-1-1-1-1-1-1-1-1-|-1-1-1-1-1-1-1-|---|



1.Thru natures eye...                            Play 4x                      
|------------|--------------|------------|--------------|----|
|------------|--------------|------------|--------------|----|
|------------|--------------|------------|-8-7----------|----|
|-3-5-x-8--8-|-3S5-8S10--10-|-3-5-x-8--8-|-6-5-8-7--8/--|----|
|-1S3-x-6--6-|-1S3-6S=8---8-|-1S3-x-6--6-|-----6-5--6/--|----|
|------------|--------------|------------|--------------|----|




Half way to paradise
|-------------|-------------|-------------|-------------------|
|-------------|-------------|-------------|-------------------|
|-------------|-------------|-------------|-------------------|
|-------------|-6--6--6-6-6-|-------------|-------------------|
|-6--6--6-6-6-|-4--4--4-4-4-|-5--5--5-7-9-|-4--4-4--3--3-3/---|
|-4--4--4-4-4-|-------------|-3--3--3-5-7-|-2--2-2--1--1-1/---|

Black wizard pause flight
|-------------|-------------|-----|--------|----|
|-------------|-------------|-----|--------|----|
|-------------|-------------|-----|--------|----|
|-------------|-6--6--6-6-6-|-----|--------|----|
|-6--6--6-6-6-|-4--4--4-4-4-|-----|--------|----|
|-4--4--4-4-4-|-------------|-5---|--(5)---|----|



   Captain desolation...
||--------------------|-----------------|---------------------|----|
||o-------------------|-----------------|---------------------|----|
||--------------------|-----------------|---------------------|----|
||--------------------|-----------------|---------------------|----|
||o-6h8-8-8p6---6-----|-8p6---8S9-8---6-|-6h8-8-8p6---6-------|----|
||------------8---8-8-|-----8-------8---|-----------8---8-8-8-|----|

                Play 2x    2.
|----------------------||-------------------|      |----------------|-----------|
|---------------------o||-------------------|      |----------------|-----------|
|----------------------||-------------------|      |----------------|-----------|
|----------------------||-------------------|      |-----8----------|-----------|
|-6h8p6-5-5h6p5-----6-o||-6h8p6-5-5h6p5-----|      |---6---6--6-6-6-|-8-7-6--6--|
|---------------6-8----||---------------/6/-|      |-8--------------|-----4--4--|

                        Play 2x          
|----------------|-------------|     |-----------------|---------------|---|
|----------------|-------------|     |-----------------|---------------|---|
|----------------|---8S10S8--8-|     |-----------------|---------------|---|
|-----8----------|---6S=8S6--6-|     |-----------------|---------------|---|
|---6---6--6-6-6-|-8-----------|     |-----------------|---------------|---|
|-8--------------|-------------|     |-1-1-1-1-1-1-1-1-|-1-1-1-1-1-1-1-|---|



1.Tornado nation...                            Play 4x                      
|------------|--------------|------------|--------------|----|
|------------|--------------|------------|--------------|----|
|------------|--------------|------------|-8-7----------|----|
|-3-5-x-8--8-|-3S5-8S10--10-|-3-5-x-8--8-|-6-5-8-7--8/--|----|
|-1S3-x-6--6-|-1S3-6S=8---8-|-1S3-x-6--6-|-----6-5--6/--|----|
|------------|--------------|------------|--------------|----|




Full speed to paradise
|-------------|-------------|-------------|-------------------|
|-------------|-------------|-------------|-------------------|
|-------------|-------------|-------------|-------------------|
|-------------|-6--6--6-6-6-|-------------|-------------------|
|-6--6--6-6-6-|-4--4--4-4-4-|-5--5--5-7-9-|-4--4-4--3--3-3/---|
|-4--4--4-4-4-|-------------|-3--3--3-5-7-|-2--2-2--1--1-1/---|

Green wizard grants delight
|-------------|-------------|-----|--------|----|
|-------------|-------------|-----|--------|----|
|-------------|-------------|-----|--------|----|
|-------------|-6--6--6-6-6-|-----|--------|----|
|-6--6--6-6-6-|-4--4--4-4-4-|-----|--------|----|
|-4--4--4-4-4-|-------------|-5---|--(5)---|----|


Planet head explodes...
||--------------------|-----------------|---------------------|----|
||o-------------------|-----------------|---------------------|----|
||--------------------|-----------------|---------------------|----|
||--------------------|-----------------|---------------------|----|
||o-6h8-8-8p6---6-----|-8p6---8S9-8---6-|-6h8-8-8p6---6-------|----|
||------------8---8-8-|-----8-------8---|-----------8---8-8-8-|----|

                Play 2x    2.
|----------------------||-------------------|      |----------------|-----------|
|---------------------o||-------------------|      |----------------|-----------|
|----------------------||-------------------|      |----------------|-----------|
|----------------------||-------------------|      |-----8----------|-----------|
|-6h8p6-5-5h6p5-----6-o||-6h8p6-5-5h6p5-----|      |---6---6--6-6-6-|-8-7-6--6--|
|---------------6-8----||---------------/6/-|      |-8--------------|-----4--4--|

                        Play 2x          
|----------------|-------------|
|----------------|-------------|
|----------------|---8S10S8--8-|
|-----8----------|---6S=8S6--6-|
|---6---6--6-6-6-|-8-----------|
|-8--------------|-------------|


 
Rhythm behind the solo                                          Play 4x
|----------------|-----------------|-----------------|-----------------|
|----------------|-----------------|-----------------|-----------------|
|----------------|-----------------|-----------------|-----------------|
|----------------|-----------------|-----------------|-----------------|
|-3--------------|-----------------|-----------------|-----------------|
|-1--1-1-1-1-1-1-|-1-1-1-1-1-1-1-1-|-1-1-1-1-1-1-1-1-|-1-1-1-1-1-1-1-1-|


   1.Suicide         Asteroid
   2.Suicide         Asteroid
||---------------|--------------------|
||o--------------|--------------------|
||---------x-x-x-|---------x---x---x--|
||--6-5-6--x-x-x-|---------x---x---x--|
||o-4-3-4--x-x-x-|-6-5-6---x---x---x--|
||---------------|-4-3-4--------------|

 Destiny         null and void
 Satan's realm                  Overjoyed
|--------------|---------------|---------||Play 4x
|--------------|---------------|--------o||
|--------x-x-x-|---------x-x-x-|---------||
|--------x-x-x-|---------x-x-x-|---------||
|-6-7-8--x-x-x-|-8-9-10--x-x-x-|-8-9-10/o||
|-4-5-6--------|-6-7--8--------|-6-7--8/-||



|----------------|-----------|
|----------------|-----------|
|----------------|-----------|
|-----8----------|-----------|
|---6---6--6-6-6-|-8-7-6--6--|
|-8--------------|-----4--4--|
                        Play 2x          
|----------------|-------------|
|----------------|-------------|
|----------------|---8S10S8--8-|
|-----8----------|---6S=8S6--6-|
|---6---6--6-6-6-|-8-----------|
|-8--------------|-------------|


 Gtr.I
|-----------------|-----------------------|
|-----------------|-----------------------|
|-----------x-x-x-|------------x---x---x--|
|--6--5--6--x-x-x-|------------x---x---x--|
|--4--3--4--x-x-x-|--6--5--6---x---x---x--|
|-----------------|--4--3--4--------------|
|
|Gtr.II
|-13-12-13--x-x-x-|------------x---x---x--|
|-----------x-x-x-|-13-12-13---x---x---x--|
|-10--9-10--x-x-x-|------------x---x---x--|
|-----------------|-10--9-10--------------|
|-----------------|-----------------------|
|-----------------|-----------------------|

 Gtr.I                         Play 4x
|-------------------|-----------------|----|
|-------------------|-----------------|----|
|-------------x-x-x-|-----------x-x-x-|----|
|-------------x-x-x-|-----------x-x-x-|----|
|--6--6--7--8-x-x-x-|--8--9-10--x-x-x-|----|
|--4--4--5--6-------|--6--7--8--------|----|
|
|Gtr.II
|-------------x-x-x-|-----------x-x-x-|----|
|-13-13-14-15-x-x-x-|-15-16-17--x-x-x-|----|
|-------------x-x-x-|-----------x-x-x-|----|
|-10-10-11-12-------|-12-13-14--------|----|
|-------------------|-----------------|----|
|-------------------|-----------------|----|


|-----------------|-----------------------|--------------*|
|-----------------|-----------------------|--------------*|
|-----------x-x-x-|------------x---x---x--|--------------*|
|--6--5--6--x-x-x-|------------x---x---x--|--------------*|
|--4--3--4--x-x-x-|--6--5--6---x---x---x--|--6--7--8/----*|
|-----------------|--4--3--4--------------|--4--5--6/----*|
|
|-13-12-13--x-x-x-|------------x---x---x--|--------------*|
|-----------x-x-x-|-13-12-13---x---x---x--|-13-14-15/----*|
|-10--9-10--x-x-x-|------------x---x---x--|--------------*|
|-----------------|-10--9-10--------------|-10-11-12/----*|
|-----------------|-----------------------|--------------*|
|-----------------|-----------------------|--------------*|
Добавлено: 10.09.2015
Другие материалы по этой песне:
  • Аккорды и текст

Страница создана 11.03.2012
http://primanota.ru/cathedral/suicide-asteroid-chords.htm
Привет, Гость.
Предлагаем пройти революционный курс по гитаре.
Подарок от PrimaNota.Ru, забирай!