PrimaNota.ru - самый крупный в мире бесплатный архив песенных текстов, аккордов, табулатур и нот


Cathedral - Stained Glass Horizon - текст песни, таба, видео

Регистрация Запомнить меня
Войти через:  Facebook Google Twitter Vk Yandex Mail.ru

Cathedral - Stained Glass Horizon - текст песни, таба, видео

Печатать
Просмотров: 105
Artist: Cathedral
Piece: Stained Glass Horizon
Instrument: Guitar

                              STAINED GLASS HORIZON
                            As recorded by Cathedral
                (From the 1996 Album SUPERNATURAL BIRTH MACHINE)

Gtr I (C F Bb Eb G C) - 'Untitled'
Gtr II (C F Bb Eb G C) - 'Untitled'
 4/4
      Gtrs I, II
|---|---------------------|---------------------|
|---|---------------------|---------------------|
|---|---------------------|---------------------|
|---|-8S10-10-10-10-10-10-|-8S10-10-10-10-10-10-|
|---|-6S=8--8--8--8--8--8-|-6S=8--8--8--8--8--8-|
|---|---------------------|---------------------|

                        Play 2x     2.  
|-------------------------------|-----|
|-------------------------------|-----|
|-------------------------------|-----|
|-8S10-10-10-10-10-6--------8-8-|-----|
|-6S=8--8--8--8--8---8-7-6--6-6-|-/6/-|
|-------------------------------|-----|

 1.Stained glass horizon...
 2.Fortune left behind you...
|---------------------|---------------------|
|---------------------|---------------------|
|---------------------|---------------------|
|-8S10-10-10-10-10-10-|-8S10-10-10-10-10-10-|
|-6S=8--8--8--8--8--8-|-6S=8--8--8--8--8--8-|
|---------------------|---------------------|

                                   2.
|--------------------------------|-------|
|--------------------------------|-------|
|--------------------------------|-------|
|-8S10-10-10-10-10-6-------------|-------|
|-6S=8--8--8--8--8---8-7-6--/6--|-6-6---|
|--------------------------------|-------|

 No energy to run...
 Opium moon...
|------------------|------------------|--------------------------------|
|------------------|------------------|--------------------------------|
|------------------|------------------|--------------------------------|
|-8S10-10-10-10-10-|-8S10-10-10-10-10-|-8S10-10-12-10-10-6-------------|
|-6S=8--8--8--8--8-|-6S=8--8--8--8--8-|-6S=8--8-10--8--8---8-7-6--/6/--|
|------------------|------------------|--------------------------------|

      Your spirit reings...
|--------|------------|---------------------|-------------------|----|
|--------|------------|---------------------|-------------------|----|
|-12-10--|-10-11-12-8-|---------------------|---------------x-x-|----|
|-10--8--|--8--9-10-6-|-8S10-10-10-10-10-10-|-8S10-10-10-10-x-x-|----|
|--------|------------|-6S=8--8--8--8--8--8-|-6S=8--8--8--8-----|----|
|--------|------------|---------------------|-------------------|----|

     Love stained...
|----------|------|---|----------------|
|----------|------|---|----------------|
|-10-10-12-|-13-8-|-7-|----------------|
|--8--8-10-|-11-6-|-5-|----5-6-5h6p5---|
|----------|------|---|--6-----------6-|
|----------|------|---|----------------|
     1.Ooh yeah,yeah,yeahah!
     2.(Guitar Make A Lick)
|---|---------------------|---------------------|
|---|---------------------|---------------------|
|---|---------------------|---------------------|
|---|-8S10-10-10-10-10-10-|-8S10-10-10-10-10-10-|
|---|-6S=8--8--8--8--8--8-|-6S=8--8--8--8--8--8-|
|---|---------------------|---------------------|

                        Play 2x  2.  
|-------------------------------|-----|
|-------------------------------|-----|
|-------------------------------|-----|
|-8S10-10-10-10-10-6--------8-8-|-----|
|-6S=8--8--8--8--8---8-7-6--6-6-|-/6/-|
|-------------------------------|-----|

1.Black dove is a...
2.Banquet for the living...
|---------------------|---------------------|
|---------------------|---------------------|
|---------------------|---------------------|
|-8S10-10-10-10-10-10-|-8S10-10-10-10-10-10-|
|-6S=8--8--8--8--8--8-|-6S=8--8--8--8--8--8-|
|---------------------|---------------------|


|--------------------------------|--------|
|--------------------------------|--------|
|--------------------------------|--------|
|-8S10-10-10-10-10-6-------------|--------|
|-6S=8--8--8--8--8---8-7-6--/6---|-/6/----|
|--------------------------------|--------|

 You would chase the white...
 Sins a bad man's lover...
|------------------|------------------|--------------------------------|
|------------------|------------------|--------------------------------|
|------------------|------------------|--------------------------------|
|-8S10-10-10-10-10-|-8S10-10-10-10-10-|-8S10-10-12-10-10-6-------------|
|-6S=8--8--8--8--8-|-6S=8--8--8--8--8-|-6S=8--8-10--8--8---8-7-6--/6/--|
|------------------|------------------|--------------------------------|

        Your heart's in chains....
|--------|------------|---------------------|-------------------|----|
|--------|------------|---------------------|-------------------|----|
|-12-10--|-10-11-12-8-|---------------------|---------------x-x-|----|
|-10--8--|--8--9-10-6-|-8S10-10-10-10-10-10-|-8S10-10-10-10-x-x-|----|
|--------|------------|-6S=8--8--8--8--8--8-|-6S=8--8--8--8-----|----|
|--------|------------|---------------------|-------------------|----|

     Love stained...
|----------|------|---|
|----------|------|---|
|-10-10-12-|-13-8-|-7-|
|--8--8-10-|-11-6-|-5-|
|----------|------|---|
|----------|------|---|


||--------------|---------------|-------------|
||o-------------|---------------|-------------|
||--------------|---------------|-------------|
||--------------|---------------|-------------|
||o-4--4p2-4----|-2-4-4p2-4--7--|-9--9p7-9----|
||--------------|---------------|-------------|

            Play 2x   2.
|------------------||---------------------|
|-----------------o||---------------------|
|------------------||---------------------|
|------------------||---------------------|
|-7-9b10r9-7-9/-2-o||-7-9-9p7-9b10r9-7-9--|
|------------------||---------------------|


|---------|--------------|-------------|
|---------|--------------|-------------|
|---------|--------------|-------------|
|---------|--------------|-------------|
|-7-7p5-7-|-5-7-7p5-7-10-|-12-12p10-12-|
|---------|--------------|-------------|


|----------------------|---------|------------|
|----------------------|---------|------------|
|----------------------|---------|------------|
|----------------------|---------|------------|
|-10-12b13r12-10-12/-5-|-7-7p5-7-|-5-7-7p5-7--|
|----------------------|---------|------------|

                                      
|--------------|------------------------|-------------|-----------------|
|--------------|------------------------|-------------|-----------------|
|--------------|------------------------|-------------|-----------------|
|--------------|------------------------|-------------|-----------------|
|--------------|------------------------|-7--7p5-7----|-5-7-7p5-7--10---|
|-3--5--5p3-5--|--3-5b6r5-3-5p3-3-5p3-3-|-------------|-----------------|


|-----------------|----------------------|-----------|--------------------|
|-----------------|----------------------|-----------|--------------------|
|-----------------|----------------------|-----------|--------------------|
|-----------------|----------------------|-----------|--------------------|
|-12--12p10-12----|-10-12b13r12-10-12/-5-|-7--7p5-7--|---5-7-7p5-7--10----|
|-----------------|----------------------|-----------|--------------------|


                              H.=H
|-----------------------||--------------|----------------------------|
|-----------------------||o-------------|----------------------------|
|-----------------------||--2p1---4s6-2-|-2p1---2s4-2-4-x-6s7-9s11-9-|
|-----------------------||------2-------|-----2----------------------|
|-12b1312p10-12------11-||o-------------|----------------------------|
|--------------10S12-12-||--------------|----------------------------|


|-----------------------------|---------------------------|
|-----------------------------|---------------------------|
|-2p1---2s4-2-4-x-6s7-6h7p6-2-|-2p1---2s4-2-4-x-6s7-7s9-9-|
|-----2-----------------------|-----2---------------------|
|-----------------------------|---------------------------|
|-----------------------------|---------------------------|


|-----------------------------|-----------------------------|
|-----------------------------|-----------------------------|
|-2p1---2s4-2-4-x-6s7-6h7p6-2-|-2p1---2s4-2-4-x--6s7-9s11-9-|
|-----2-----------------------|-----2-----------------------|
|-----------------------------|-----------------------------|
|-----------------------------|-----------------------------|


|--------------------------------|
|--------------------------------|
|-2p1---2s4-2-4-x--6s7-6h7p6-2---|
|-----2--------------------------|
|--------------------------------|
|--------------------------------|


|----------------------------|------------------------------|
|----------------------------|------------------------------|
|-2p1---2s4-2-4-x--6s7-7s9-9-|-2p1---2s4-2-4-x--6s7-6h7p6-2-|
|-----2----------------------|-----2------------------------|
|----------------------------|------------------------------|
|----------------------------|------------------------------|


|----------------------------|------------------------------|
|----------------------------|------------------------------|
|-2p1---2s4-2-4-x-6s7-9s11-9-|-2p1---2s4-2-4-x--6s7-6h7p6-2-|
|-----2----------------------|-----2------------------------|
|----------------------------|------------------------------|
|----------------------------|------------------------------|


|----------------------------|---------------------------------|
|----------------------------|---------------------------------|
|-2p1---2s4-2-4-x-6s7-9s11-9-|-2p1---2s4-2-4-x--6s7-6h7p6-2----|
|-----2----------------------|-----2---------------------------|
|----------------------------|---------------------------------|
|----------------------------|---------------------------------|

                                     SOLO BEGINS
|---------------------------------||----------------------|
|--------------------------------o||----------------------|
|-2p1---2s4-2-4-x-6s7-9s7-9s11-9--||----------------------|
|-----2---------------------------||-8S10-10-10-10--10-10-|
|--------------------------------o||-6S=8--8--8--8---8--8-|
|---------------------------------||----------------------|

                                                    Play 4x  4.
|----------------------|--------------------|---------------|------|
|----------------------|--------------------|---------------|------|
|----------------------|--------------------|---------------|------|
|-8S10-10-10-10--10-10-|-8S10-10-10-10--10--|-6---------8-8-|------|
|-6S=8--8--8--8---8--8-|-6S=8--8--8--8---8--|---8-7-6---6-6-|-/6/--|
|----------------------|--------------------|---------------|------|

1.Jesus walk beside you...
2.Hiding with the sunshine...
|---------------------|---------------------|
|---------------------|---------------------|
|---------------------|---------------------|
|-8S10-10-10-10-10-10-|-8S10-10-10-10-10-10-|
|-6S=8--8--8--8--8--8-|-6S=8--8--8--8--8--8-|
|---------------------|---------------------|


|--------------------------------|--------|
|--------------------------------|--------|
|--------------------------------|--------|
|-8S10-10-10-10-10-6-------------|--------|
|-6S=8--8--8--8--8---8-7-6--/6---|-/6/----|
|--------------------------------|--------|

 Evil feels good...
 Fight the force that...
|------------------|------------------|--------------------------------|
|------------------|------------------|--------------------------------|
|------------------|------------------|--------------------------------|
|-8S10-10-10-10-10-|-8S10-10-10-10-10-|-8S10-10-12-10-10-6-------------|
|-6S=8--8--8--8--8-|-6S=8--8--8--8--8-|-6S=8--8-10--8--8---8-7-6--/6/--|
|------------------|------------------|--------------------------------|

       Your heart's in chains....
|----------------------|-------------------|----------------------|--------|
|----------------------|-------------------|----------------------|--------|
|-12--10---10-11-12----|-8-----------------|----------------------|-x-x----|
|-10---8----8--9-10----|-6--8S10-10-10-10--|-10-10-8S10-10-10-10--|-x-x----|
|----------------------|----6S=8--8--8--8--|--8--8-6S=8--8--8--8--|--------|
|----------------------|-------------------|----------------------|--------|

     Love stained...
|---------------|------------|----------|-------------------|
|---------------|------------|----------|-------------------|
|-10------10-12-|-13----8----|-7--------|----------------7--|
|--8-------8-10-|-11----6----|-5--------|----5-6-5h6p5---5--|
|---------------|------------|----------|--6-----------6----|
|---------------|------------|----------|-------------------|


|-----------------|-------------------|-----------------|
|-----------------|-------------------|-----------------|
|-----------------|-------------------|-----------------|
|---5-6-5h6p5-----|-------------------|-----------------|
|-6-----------6/--|-------------------|-----------------|
|-----------------|-1-1-1-1-1-1-1-1-1-|-1-1-1-1-1-1-1-1-|
                   Drums Enters
|-----------------|-------------------------------|
|-----------------|-------------------------------|    
|-----------------|-------------------------------|    
|-----------------|-------------------------------|
|-----------------|-------------------------------|
|-1-1-1-1-1-1-1-1-|-1-1-1-1-1-1-1-1-1-1-1-1-1-1-1-|


                                       Play 7x
|---------------------------------------------|
|---------------------------------------------|
|---------------------------------------------|
|10-10-10s8-8-10-10-10s8-8-10-10-10s8-8-1010-8|
|-8--8--8s6-6--8--8--8s6-6--8--8--8s6-6--8-8-6|
|---------------------------------------------|


|-----------|----------------|---|--------|----|
|-----------|----------------|---|--------|----|
|-----------|----------------|---|--------|----|
|-10----8---|-6----4-6-8-10/-|---|-7-7/---|----|
|--8-8--6-6-|-4-4--2-4-6--8/-|---|-8-8/---|----|
|----6----4-|---2------------|---|--------|----|
Добавлено: 10.09.2015
Другие материалы по этой песне:
  • Аккорды и текст

Страница создана 07.04.2012
http://primanota.ru/cathedral/stained-glass-horizon-chords.htm
Привет, Гость.
Предлагаем пройти революционный курс по гитаре.
Подарок от PrimaNota.Ru, забирай!