PrimaNota.ru - самый крупный в мире бесплатный архив песенных текстов, аккордов, табулатур и нот


Cathedral - Solitude - таба, видео

Регистрация Запомнить меня
Войти через:  Facebook Google Twitter Vk Yandex Mail.ru

Cathedral - Solitude - таба, видео

Печатать
Просмотров: 146
Уроки эстрадного вокала в Санкт-Петербурге
                               SOLITUDE
                            As recorded by Cathedral
      (From the 1994 Album NATIVITY IN BLACK - A TRIBUTE TO BLACK SABBATH)

Words and Music by Black Sabbath
Arranged by Cathedral
Transcribed by The Foreverlorn

          Bm                    A
      x 2 4 4 3 2          x 0 2 2 2 0

   Intro
    Q=115
    Bm         A                 Bm         A
   3/4
    Gtr I
                        ~~~~~~~
||--------2--|-----------------|-------2--|-------||
||o-----3----|-5--2h3p2--------|----3-----|-5----o||
||--4--------|----------2--(2)-|-4--------|-------||
||-----------|-----------------|----------|-------||
||o----------|-----------------|----------|------o||
||-----------|-----------------|----------|-------||


 Interlude
  Bm             A        Bm             A
|-9h10p9----9--|-9------|-9h10p9----9--|-9----|
|--------10----|--------|--------10----|------|
|--------------|--------|--------------|------|
|--------------|--------|--------------|------|
|--------------|--------|--------------|------|
|--------------|--------|--------------|------|


  Bm         A                 Bm         A
 3/4
  Gtr I
                      ~~~~~~~                      ~~~~~~~
|-------2--|-----------------|-------2--|------------------|
|-----3----|-5--2h3p2--------|----3-----|-5--2h3p2---------|
|-4--------|----------2--(2)-|-4--------|----------2--(2)--|
|----------|-----------------|----------|------------------|
|----------|-----------------|----------|------------------|
|----------|-----------------|----------|------------------|


   Verse
    Bm            A                 Bm            A
||--------------|------------||-||--------------|-----------|-----------|
||o--------(3)--|-(2)----2--o||-||o--------(3)--|-(2)----2--|-(2)----2--|
||--(4)-----4---|-(2)----2---||-||--(4)-----4---|-(2)----2--|-(2)----2--|
||--(4)-----4---|--------2---||-||--(4)-----4---|--------2--|--------2--|
||o--2----------|--0--------o||-||o--2----------|--0--------|--0--------|
||--------------|------------||-||--------------|-----------|-----------|


 Flute Solo
  1.
  Bm            A                 Bm              A
  Gtr I
|-------------|-----------------|---------------|------------||
|--------(3)--|-(2)--------2----|----------(3)--|-(2)----2--o||
|-(4)-----4---|-(2)--------2----|-(4)-------4---|-(2)----2---||
|-(4)-----4---|------------2----|-(4)-------4---|--------2---||
|--2----------|--0--------------|--2------------|--0--------o||
|-------------|-----------------|---------------|------------||
|
| Gtr II
|                                                  >
|-------------|-----14-14----15-|-14------------|------------||
|-------------|-----------------|-------17-15---|-14--------o||
|-------------|-----------------|---------------|------------||
|-------------|-----------------|---------------|------------||
|-------------|-----------------|---------------|-----------o||
|-------------|-----------------|---------------|------------||


 Flute Solo
  2.
  Bm            A              Bm              A
  Gtr I
|-------------|--------------|---------------|----------------------------|
|--------(3)--|-(2)-------2--|----------(3)--|--(2)-----------------2-----|
|-(4)-----4---|-(2)-------2--|-(4)-------4---|--(2)-----------------2-----|
|-(4)-----4---|-----------2--|-(4)-------4---|----------------------2-----|
|--2----------|--0-----------|--2------------|---0------------------------|
|-------------|--------------|---------------|----------------------------|
|
| Gtr II
|-------------|------19--21--|-19----17------|----------------------------|
|-------------|--------------|----------19---|-(19)-17--------------------|
|-------------|--------------|---------------|---------18h19-18-18h19-18--|
|-------------|--------------|---------------|----------------------------|
|-------------|--------------|---------------|----------------------------|
|-------------|--------------|---------------|----------------------------|


 Verse
  Bm            A
|-------------|-----------|-----------|
|--------(3)--|-(2)----2--|-(2)----2--|
|-(4)-----4---|-(2)----2--|-(2)----2--|
|-(4)-----4---|--------2--|--------2--|
|--2----------|--0--------|--0--------|
|-------------|-----------|-----------|
|
|  >
|-------------|-----------|-----------|
|-------------|-----------|-----------|
|-16----------|-----------|-----------|
|-------------|-----------|-----------|
|-------------|-----------|-----------|
|-------------|-----------|-----------|


 Flute Solo
  Bm            A                Bm            A
  Gtr I
|-------------|----------------|-------------|------------------|
|--------(3)--|-(2)-------2----|--------(3)--|-(2)----------2---|
|-(4)-----4---|-(2)-------2----|-(4)-----4---|-(2)----------2---|
|-(4)-----4---|-----------2----|-(4)-----4---|--------------2---|
|--2----------|--0-------------|--2----------|--0---------------|
|-------------|----------------|-------------|------------------|
|
| Gtr II
|                                                           >
|-------------|-------22-22-21-|-19----------|------------------|
|-------------|----------------|--------22---|-19--17-17--(17)--|
|-------------|----------------|-------------|------------------|
|-------------|----------------|-------------|------------------|
|-------------|----------------|-------------|------------------|
|-------------|----------------|-------------|------------------|


 Verse
  Bm            A
  Gtr I
|-------------|-----------|-----------|
|--------(3)--|-(2)----2--|-(2)----2--|
|-(4)-----4---|-(2)----2--|-(2)----2--|
|-(4)-----4---|--------2--|--------2--|
|--2----------|--0--------|--0--------|
|-------------|-----------|-----------|


  Bm            A           Bm            A
  Gtr I
|-------------|-----------|-------------|-----------|
|--------(3)--|-(2)----2--|--------(3)--|-(2)----2--|
|-(4)-----4---|-(2)----2--|-(4)-----4---|-(2)----2--|
|-(4)-----4---|--------2--|-(4)-----4---|--------2--|
|--2----------|--0--------|--2----------|--0--------|
|-------------|-----------|-------------|-----------|


  Bm            A           Bm            A
  Gtr I
|-------------|-----------|-------------|------------------|
|--------(3)--|-(2)----2--|--------(3)--|-(2)-----------2--|
|-(4)-----4---|-(2)----2--|-(4)-----4---|-(2)-----------2--|
|-(4)-----4---|--------2--|-(4)-----4---|---------------2--|
|--2----------|--0--------|--2----------|--0---------------|
|-------------|-----------|-------------|------------------|
|
| Gtr II
|-------------|-----------|--------19---|-19--21-21-19-17--|
|-------------|-----------|-19----------|------------------|
|-------------|-----------|-------------|------------------|
|-------------|-----------|-------------|------------------|
|-------------|-----------|-------------|------------------|
|-------------|-----------|-------------|------------------|


 Interlude
  Bm         A                 Bm         A
                      ~~~~~~~
|-------2--|-----------------|-------2--|------|
|--3-------|-5--2h3p2--------|----3-----|-5----|
|----------|----------2--(2)-|-4--------|------|
|----------|-----------------|----------|------|
|----------|-----------------|----------|------|
|----------|-----------------|----------|------|
|
|  >
|-19-------|-----------------|----------|------|
|----------|-----------------|----------|------|
|----------|-----------------|----------|------|
|----------|-----------------|----------|------|
|----------|-----------------|----------|------|
|----------|-----------------|----------|------|


  Bm         A                 Bm         A
  Gtr I
                      ~~~~~~~                      ~~~~~~~
|-------2--|-----------------|-------2--|-----------------|
|-----3----|-5--2h3p2--------|----3-----|-5--2h3p2--------|
|-4--------|----------2--(2)-|-4--------|----------2--(2)-|
|----------|-----------------|----------|-----------------|
|----------|-----------------|----------|-----------------|
|----------|-----------------|----------|-----------------|


   Verse
    Bm            A                 Bm            A
||--------------|------------||-||--------------|-----------|-----------|
||o--------(3)--|-(2)----2--o||-||o--------(3)--|-(2)----2--|-(2)----2--|
||--(4)-----4---|-(2)----2---||-||--(4)-----4---|-(2)----2--|-(2)----2--|
||--(4)-----4---|--------2---||-||--(4)-----4---|--------2--|--------2--|
||o--2----------|--0--------o||-||o--2----------|--0--------|--0--------|
||--------------|------------||-||--------------|-----------|-----------|


 Flute Solo
  1.
  Bm            A           Bm                 A
  Gtr I
|-------------|-----------|------------------|---------------||
|--------(3)--|-(2)----2--|-------------(3)--|-(2)------2---o||
|-(4)-----4---|-(2)----2--|-(4)----------4---|-(2)------2----||
|-(4)-----4---|--------2--|-(4)----------4---|----------2----||
|--2----------|--0--------|--2---------------|--0-----------o||
|-------------|-----------|------------------|---------------||
|
| Gtr II
|                                                       >
|-------------|-----------|------------------|---------------||
|-------------|-----------|-19----20-19-17---|-14-----(14)--o||
|-------------|-----------|------------------|---------------||
|-------------|-----------|------------------|---------------||
|-------------|-----------|------------------|--------------o||
|-------------|-----------|------------------|---------------||


 Flute Solo
  2.
  Bm            A                    Bm                  A
  Gtr I
|-------------|--------------------|-------------------|--------------------|
|--------(3)--|-(2)-----------2----|---------(3)-------|-(2)-----------2----|
|-(4)-----4---|-(2)-----------2----|-(4)------4--------|-(2)-----------2----|
|-(4)-----4---|---------------2----|-(4)------4--------|---------------2----|
|--2----------|--0-----------------|--2----------------|--0-----------------|
|-------------|--------------------|-------------------|--------------------|
|
| Gtr II
|-------------|-----17-17-19-19-21-|-19-----(19)-21-22-|-24--22-21-------21-|
|-------------|-19-----------------|-------------------|-----------22-24----|
|-------------|--------------------|-------------------|--------------------|
|-------------|--------------------|-------------------|--------------------|
|-------------|--------------------|-------------------|--------------------|
|-------------|--------------------|-------------------|--------------------|


 Verse
  Bm            A
|-------------|-----------|-----------|
|--------(3)--|-(2)----2--|-(2)----2--|
|-(4)-----4---|-(2)----2--|-(2)----2--|
|-(4)-----4---|--------2--|--------2--|
|--2----------|--0--------|--0--------|
|-------------|-----------|-----------|
|
|  >
|-------------|-----------|-----------|
|-24----------|-----------|-----------|
|-------------|-----------|-----------|
|-------------|-----------|-----------|
|-------------|-----------|-----------|
|-------------|-----------|-----------|


 Flute Solo
  Bm                A                 Bm                A
  Gtr I
|-----------------|-----------------|-----------------|------------|
|------------(3)--|--(2)------2-----|------------(3)--|--(2)----2--|
|-(4)---------4---|--(2)------2-----|-(4)---------4---|--(2)----2--|
|-(4)---------4---|-----------2-----|-(4)---------4---|---------2--|
|--2--------------|---0-------------|--2--------------|---0--------|
|-----------------|-----------------|-----------------|------------|
|
| Gtr II
|                                                         >
|-22--24-24-------|-(24)----(24)-22-|-21--19-19-------|-(19)-------|
|-----------------|-----------------|-----------------|------------|
|-----------------|-----------------|-----------------|------------|
|-----------------|-----------------|-----------------|------------|
|-----------------|-----------------|-----------------|------------|
|-----------------|-----------------|-----------------|------------|


 Verse
  Bm            A
  Gtr I
|-------------|-----------|-----------|
|--------(3)--|-(2)----2--|-(2)----2--|
|-(4)-----4---|-(2)----2--|-(2)----2--|
|-(4)-----4---|--------2--|--------2--|
|--2----------|--0--------|--0--------|
|-------------|-----------|-----------|


  Bm            A           Bm            A
  Gtr I
|-------------|-----------|-------------|-----------|
|--------(3)--|-(2)----2--|--------(3)--|-(2)----2--|
|-(4)-----4---|-(2)----2--|-(4)-----4---|-(2)----2--|
|-(4)-----4---|--------2--|-(4)-----4---|--------2--|
|--2----------|--0--------|--2----------|--0--------|
|-------------|-----------|-------------|-----------|


  Bm            A           Bm            A
  Gtr I
|-------------|-----------|-------------|------------------|
|--------(3)--|-(2)----2--|--------(3)--|-(2)-----------2--|
|-(4)-----4---|-(2)----2--|-(4)-----4---|-(2)-----------2--|
|-(4)-----4---|--------2--|-(4)-----4---|---------------2--|
|--2----------|--0--------|--2----------|--0---------------|
|-------------|-----------|-------------|------------------|
|
| Gtr II
|-------------|-----------|--------19---|-19--21-21-19-17--|
|-------------|-----------|-19----------|------------------|
|-------------|-----------|-------------|------------------|
|-------------|-----------|-------------|------------------|
|-------------|-----------|-------------|------------------|
|-------------|-----------|-------------|------------------|


 "Guitar Solo"
  Bm          A                        Bm
|-----------|----------|-------------|------|
|-------2h3-|-2--------|---------5p2-|------|
|--4--------|----2--2--|-----1s2-----|-4----|
|-----------|----------|-2h4---------|------|
|-----------|----------|-------------|------|
|-----------|----------|-------------|------|
|
|  >
|-19--------|----------|-------------|------|
|-----------|----------|-------------|------|
|-----------|----------|-------------|------|
|-----------|----------|-------------|------|
|-----------|----------|-------------|------|
|-----------|----------|-------------|------|


             A                        Bm
|----------|----------|-------------|------|
|------2h3-|-2--------|---------5p2-|------|
|-4--------|----2--2--|-----1s2-----|-4----|
|----------|----------|-2h4---------|------|
|----------|----------|-------------|------|
|----------|----------|-------------|------|


               A                         Bm
|------------|------------|------------|------|
|-2h3--2-----|-2h3--2-----|--------3p2-|------|
|---------4--|---------4--|-2--2h4-----|-4----|
|------------|------------|------------|------|
|------------|------------|------------|------|
|------------|------------|------------|------|


                                     Verse
             A                        Bm
|----------|----------|-------------|-----------|
|------2h3-|-2--------|---------5p2-|------(3)--|
|-4--------|----2--2--|-----1s2-----|-4-----4---|
|----------|----------|-2h4---------|-------4---|
|----------|----------|-------------|-----------|
|----------|----------|-------------|-----------|


  A           Bm            A
|-----------|-------------|-----------|
|-(2)----2--|--------(3)--|-(2)----2--|
|-(2)----2--|-(4)-----4---|-(2)----2--|
|--------2--|-(4)-----4---|--------2--|
|--0--------|--2----------|--0--------|
|-----------|-------------|-----------|


    Bm            A
||--------------|-----------|-----------|
||o--------(3)--|-(2)----2--|-(2)----2--|
||--(4)-----4---|-(2)----2--|-(2)----2--|
||--(4)-----4---|--------2--|--------2--|
||o--2----------|--0--------|--0--------|
||--------------|-----------|-----------|


 Flute Solo
  1.
  Bm                A              Bm                   A
  Gtr I
|-----------------|--------------|--------------------|---------------||
|----------(3)----|-(2)------2---|---------------(3)--|-(2)------2---o||
|-(4)-------4-----|-(2)------2---|-(4)------------4---|-(2)------2----||
|-(4)-------4-----|----------2---|-(4)------------4---|----------2----||
|--2--------------|--0-----------|--2-----------------|--0-----------o||
|-----------------|--------------|--------------------|---------------||
|
| Gtr II
|                            >                                   >
|------19------21-|-21-----(21)--|------21h22-21-19---|-17-----(17)---||
|-----------------|--------------|--------------------|--------------o||
|-----------------|--------------|--------------------|---------------||
|-----------------|--------------|--------------------|---------------||
|-----------------|--------------|--------------------|--------------o||
|-----------------|--------------|--------------------|---------------||


 Flute Solo
  2.
  Bm                 A              Bm            A
  Gtr I
|------------------|--------------|-------------|-----------|
|-------------(3)--|-(2)------2---|--------(3)--|-(2)----2--|
|-(4)----------4---|-(2)------2---|-(4)-----4---|-(2)----2--|
|-(4)----------4---|----------2---|-(4)-----4---|--------2--|
|--2---------------|--0-----------|--2----------|--0--------|
|------------------|--------------|-------------|-----------|
|
| Gtr II
|                             >
|------------------|--------------|-------------|-----------|
|-19----20-19-17---|-14-----(14)--|-------------|-----------|
|------------------|--------------|-------------|-----------|
|------------------|--------------|-------------|-----------|
|------------------|--------------|-------------|-----------|
|------------------|--------------|-------------|-----------|


 Verse
  Bm            A
|-------------|-----------|-----------|
|--------(3)--|-(2)----2--|-(2)----2--|
|-(4)-----4---|-(2)----2--|-(2)----2--|
|-(4)-----4---|--------2--|--------2--|
|--2----------|--0--------|--0--------|
|-------------|-----------|-----------|
|
|-------------|-----------|-----------|
|-------------|-----------|-----------|
|-------------|-----------|-----------|
|-------------|-----------|-----------|
|-------------|-----------|-----------|
|-------------|-----------|-----------|


 Flute Solo
  Bm            A                Bm             A
  Gtr I
|-------------|----------------|--------------|-----------|
|--------(3)--|-(2)-------2----|---------(3)--|-(2)----2--|
|-(4)-----4---|-(2)-------2----|-(4)------4---|-(2)----2--|
|-(4)-----4---|-----------2----|-(4)------4---|--------2--|
|--2----------|--0-------------|--2-----------|--0--------|
|-------------|----------------|--------------|-----------|
|
| Gtr II
|                                         >
|-------------|-19----21-22-24-|-26-----(26)--|-----------|
|-------------|----------------|--------------|-----------|
|-------------|----------------|--------------|-----------|
|-------------|----------------|--------------|-----------|
|-------------|----------------|--------------|-----------|
|-------------|----------------|--------------|-----------|


 Verse
  Bm            A           Bm
|-------------|-----------|-----------|
|--------(3)--|-(2)----2--|-(2)----2--|
|-(4)-----4---|-(2)----2--|-(2)----2--|
|-(4)-----4---|--------2--|--------2--|
|--2----------|--0--------|--0--------|
|-------------|-----------|-----------|


    Bm            A
                             4x
||--------------|------------||
||o--------(3)--|-(2)----2--o||
||--(4)-----4---|-(2)----2---||
||--(4)-----4---|--------2---||
||o--2----------|--0--------o||
||--------------|------------||


  Bm            A
  Gtr I
|-------------|------------|
|--------(3)--|-(2)-----2--|
|-(4)-----4---|-(2)-----2--|
|-(4)-----4---|---------2--|
|--2----------|--0---------|
|-------------|------------|
|
| Gtr II
|-------------|------------|
|-------------|--------19--|
|-------------|------------|
|-------------|------------|
|-------------|------------|
|-------------|------------|


 Flute Outro
  Bm              A
|---------------|--------------------|--------------|
|--------(3)----|-(2)-------------2--|-(2)-------2--|
|-(4)-----4-----|-(2)-------------2--|-(2)-------2--|
|-(4)-----4-----|-----------------2--|-----------2--|
|--2------------|--0-----------------|--0-----------|
|---------------|--------------------|--------------|
|
|-19-----21--22-|-21----19-21-19-----|------19--21--|
|---------------|----------------22--|-22-----------|
|---------------|--------------------|--------------|
|---------------|--------------------|--------------|
|---------------|--------------------|--------------|
|---------------|--------------------|--------------|


  Bm                A            Bm            A
|-----------------|------------|-------------|-----------|
|------------(3)--|--(2)----2--|--------(3)--|-(2)----2--|
|-(4)---------4---|--(2)----2--|-(4)-----4---|-(2)----2--|
|-(4)---------4---|---------2--|-(4)-----4---|--------2--|
|--2--------------|---0--------|--2----------|--0--------|
|-----------------|------------|-------------|-----------|
|
|                     >
|-19--------------|------------|-------------|-----------|
|-----22-19-------|-(19)-------|-------------|-----------|
|-----------------|------------|-------------|-----------|
|-----------------|------------|-------------|-----------|
|-----------------|------------|-------------|-----------|
|-----------------|------------|-------------|-----------|


  Bm              A
|---------------|--------------|-------------------|
|--------(3)----|-(2)-------2--|-(2)------------2--|
|-(4)-----4-----|-(2)-------2--|-(2)------------2--|
|-(4)-----4-----|-----------2--|----------------2--|
|--2------------|--0-----------|--0----------------|
|---------------|--------------|-------------------|
|
|-22-----24--26-|-24----22-21--|-21--22-21-19--17--|
|---------------|--------------|-------------------|
|---------------|--------------|-------------------|
|---------------|--------------|-------------------|
|---------------|--------------|-------------------|
|---------------|--------------|-------------------|


  Bm             A           Bm            A
|--------------|-----------|-------------|-----------|
|---------(3)--|-(2)----2--|--------(3)--|-(2)----2--|
|-(4)------4---|-(2)----2--|-(4)-----4---|-(2)----2--|
|-(4)------4---|--------2--|-(4)-----4---|--------2--|
|--2-----------|--0--------|--2----------|--0--------|
|--------------|-----------|-------------|-----------|
|
|          >
|-19-----(19)--|-----------|-------------|-----------|
|--------------|-----------|-------------|-----------|
|--------------|-----------|-------------|-----------|
|--------------|-----------|-------------|-----------|
|--------------|-----------|-------------|-----------|
|--------------|-----------|-------------|-----------|


    Bm                  A
||--------------------|------------------|------------------|
||o--------------(3)--|-(2)-----------2--|-(2)-----------2--|
||--(4)-----------4---|-(2)-----------2--|-(2)-----------2--|
||--(4)-----------4---|---------------2--|---------------2--|
||o--2----------------|--0---------------|--0---------------|
||--------------------|------------------|------------------|
|
||--19-----21----22---|-21-----22----24--|-21-----22----24--|
||o-----19----19------|-----22----22-----|-----22----22-----|
||--------------------|------------------|------------------|
||--------------------|------------------|------------------|
||o-------------------|------------------|------------------|
||--------------------|------------------|------------------|


                                          1.
  Bm                A                      Bm                 A
|-----------------|----------------------|------------------|--------------||
|------------(3)--|-(2)-------------2----|-------------(3)--|--(2)----2---o||
|-(4)---------4---|-(2)-------------2----|-(4)----------4---|--(2)----2----||
|-(4)---------4---|-----------------2----|-(4)----------4---|---------2----||
|--2--------------|--0-------------------|--2---------------|---0---------o||
|-----------------|----------------------|------------------|--------------||
|
|                                                       >
|-19--------------|-21----21-22-21-19----|-19---------------|--------------||
|-----19-19-------|-------------------22-|-----19-19--(19)--|-(19)--------o||
|-----------------|----------------------|------------------|--------------||
|-----------------|----------------------|------------------|--------------||
|-----------------|----------------------|------------------|-------------o||
|-----------------|----------------------|------------------|--------------||


  2.
  B5                 A
|------------------|------------*|
|-------------(3)--|--(2)----2--*|
|-(4)----------4---|--(2)----2--*|
|-(4)----------4---|---------2--*|
|--2---------------|---0--------*|
|------------------|------------*|
|
|-19---------------|------------*|
|-----19-19--(19)--|-(19)-------*|
|------------------|------------*|
|------------------|------------*|
|------------------|------------*|
|------------------|------------*|
Добавлено: 30.03.2012
Другие материалы по этой песне:

Страница создана 30.03.2012
http://primanota.ru/cathedral/solitude-chords.htm
Привет, Гость.
Предлагаем пройти революционный курс по гитаре.
Подарок от PrimaNota.Ru, забирай!