PrimaNota.ru - самый крупный в мире бесплатный архив песенных текстов, аккордов, табулатур и нот


Cathedral - Proga-europa - таба, видео

Регистрация Запомнить меня
Войти через:  Facebook Google Twitter Vk Yandex Mail.ru

Cathedral - Proga-europa - таба, видео

Печатать
Просмотров: 90
Artist: Cathedral
Piece: Proga-europa
Instrument: Guitar

                                 PROGA - EUROPA
                            As recorded by Cathedral
             (From the 2005 Album THE GARDEN OF UNEARTHLY DELIGHTS)

Gtr I (B E A D F# B) - 'Untitled'
Gtr II (B E A D F# B) - 'Untitled'

 4/4
  Gtr I
|-----------------|--------------|--------------|----------------|
|-----------------|--------------|--------------|----------------|
|-----------------|--------------|--------------|----------------|
|-----------------|--------------|--------------|----------------|
|-10--------------|-----8b10r8-6-|-10-----------|-------8b10r8-6-|
|--8----------6-6-|--6-----------|--8-------6-6-|--6-6-----------|

|-----------------|-----------------|----------------|---------------|
|-----------------|-----------------|----------------|---------------|
|-----------------|-----------------|----------------|---------------|
|-----------------|-----------------|----------------|---------------|
|-10--------------|-------8b10r8-6--|-10-10----------|----6-------6/-|
|--8----------6-6-|--6-6------------|--8--8------6-6-|--8---8-6-8----|



 (Lee sings a lot of words)
|-------------------|--------------------|
|-------------------|--------------------|
|-------------------|--------------------|
|-------------------|--------------------|
|-10--8----10--8----|-10--8----10-8----8-|
|-------10-------10-|-------10------10---|


|-------------------|--------------------|
|-------------------|--------------------|
|-------------------|--------------------|
|-------------------|--------------------|
|-10--8----10--8----|-10--8----10-8------|
|-------10-------10-|-------10------10/--|



 Solo
|-----------------------------------|-------------------------|
|-----------------------------------|-------------------------|
|-10pb12r10-8-10pb12r10-8-10pb12r10-|-8-10pb12r10-8-10-8-10-8-|
|-----------------------------------|-------------------------|
|-----------------------------------|-------------------------|
|-----------------------------------|-------------------------|


|----------------------------8--------|---------------------------------|
|-------11-------11-------11---11b13--|-11b13-8-11b13-8-11b13-8-11b13-8-|
|-10b12----10b12----10b12-------------|---------------------------------|
|-------------------------------------|---------------------------------|
|-------------------------------------|---------------------------------|
|-------------------------------------|---------------------------------|


|-------------|-8--------------------|----------------|-----------------|----|
|-11-8-11b13--|---11-8---------------|----------------|-----------------|----|
|-------------|--------10b12--8-10-8-|----8-10-10b12--|-8----8----------|----|
|-------------|----------------------|-10-------------|---10---10-8/----|----|
|-------------|----------------------|----------------|-----------------|----|
|-------------|----------------------|----------------|-----------------|----|


 Rhythm under solo
|-----------------|---------------|--------------|---------------|
|-----------------|---------------|--------------|---------------|
|-----------------|---------------|--------------|---------------|
|-----------------|---------------|--------------|---------------|
|-10--------------|------6b8r6-6--|-10-----------|-------6b8r6-6-|
|--8----------6-6-|-6-6-----------|--8-------6-6-|--6-6----------|

|-----------------|---------------------------|----------------|---------------|
|-----------------|---------------------------|----------------|---------------|
|-----------------|-------10b12r10p8----------|----------------|---------------|
|-----10----------|-------------------10------|----------------|---------------|
|-10--------------|---------------------------|-10-10----------|----6-------6/-|
|--8------------6-|--6-6----------------------|--8--8------6-6-|--8---8-6-8----|




 (Lee sings a lot of words)
|-------------------|--------------------|
|-------------------|--------------------|
|-------------------|--------------------|
|-------------------|--------------------|
|-10--8----10--8----|-10--8----10-8----8-|
|-------10-------10-|-------10------10---|


|-------------------|----------------------|
|-------------------|----------------------|
|-------------------|----------------------|
|-------------------|----------------------|
|-10--8----10--8----|-10--8----10-8----10--|
|-------10-------10-|-------10------10--8--|
Добавлено: 10.09.2015
Вам также может быть интересно:
Другие материалы по этой песне:
  • Аккорды и текст

Страница создана 10.09.2015
http://primanota.ru/cathedral/proga-europa-chords.htm
Привет, Гость.
Предлагаем пройти революционный курс по гитаре.
Подарок от PrimaNota.Ru, забирай!