PrimaNota.ru - самый крупный в мире бесплатный архив песенных текстов, аккордов, табулатур и нот


Cathedral - Phaser Quest - текст песни, таба, видео

Регистрация Запомнить меня
Войти через:  Facebook Google Twitter Vk Yandex Mail.ru

Cathedral - Phaser Quest - текст песни, таба, видео

Печатать
Просмотров: 70
Artist: Cathedral
Piece: Phaser Quest
Instrument: Guitar

                                  PHASER QUEST
                            As recorded by Cathedral
                (From the 1996 Album SUPERNATURAL BIRTH MACHINE)

Gtr I (C F Bb Eb G C) - 'Untitled'
Gtr II (C F Bb Eb G C) - 'Untitled'
   4/4                                                           (Guitar licks 1st 4 times)
    Gtr I                Play 8x   8.              5.Starlight   Play 12x(Vocals enters at 5th)
||----------------|-------------|----------------||--------------|-|
||o---------------|-------------|---------------o||--------------|-|
||----------------|-------------|----------------||--------------|-|
||----------------|-------------|----------------||--------------|-|
||o-5h6-5h6p5-----|-------------|---------------o||-1-3-----1-3--|-|
||------------1-2-|-2-2-3-3-3-3-|-2-2-3-3-3-3-3--||--------------|-|


   Phase your mind...   Play 8x  5.               
|----------------|-------------|---------------|-------------|----|
|----------------|-------------|---------------|-------------|----|
|----------------|-------------|---------------|-------------|----|
|----------------|-------------|-0h3-0h3p0-----|-------------|----|
|-5h6-5h6p5------|-------------|---------------|-------------|----|
|-----------1-2--|-2-2-3-3-3-3-|-----------1-2-|-2-2-3-3-3-3-|----|

 Robots...   Play 8x(With alternating licks over the riff)
|--------------|-|
|--------------|-|
|--------------|-|
|--------------|-|
|-1-3-----1-3--|-|
|--------------|-|

   Phase your mind...   Play 8x  5.6.7.8.               
|----------------|-------------|---------------|-------------|----|
|----------------|-------------|---------------|-------------|----|
|----------------|-------------|---------------|-------------|----|
|----------------|-------------|-0h3-0h3p0-----|-------------|----|
|-5h6-5h6p5------|-------------|---------------|-------------|----|
|-----------1-2--|-2-2-3-3-3-3-|-----------1-2-|-2-2-3-3-3-3-|----|



  Gtr.I              Play 4x                   Play 2x                      Play 2x
||-----------|--------------||----------|-------------||-----------|----------------|
||o----------|-------------o||----------|-------------||-----------|----------------|
||-----------|-5-3---3------||----------|-------------||-----------|--5-3---3-------|
||--3--4--5--|-----5---5-4--||----------|-5-3---3-----||-3--4--5---|------5---5-4---|
||o----------|-------------o||-3--4--5--|-----5---5-4-||-----------|----------------|
||-----------|--------------||----------|-------------||-----------|----------------|
| Gtr.II
||-----------|--------------||----------|-------------||-----------|----------------|
||o----------|-8-6---6-----o||----------|-------------||-----------|--8-6---6-------|
||--5--6--7--|-----7---7-6--||----------|-------------||-5--6--7---|------7---7-6---|
||-----------|--------------||----------|-5-3---3-----||-----------|----------------|
||o----------|-------------o||-3--4--5--|-----5---5-4-||-----------|----------------|
||-----------|--------------||----------|-------------||-----------|----------------|


Sun shines...   Play 8x(With alternating licks over the riff)
|--------------|-|
|--------------|-|
|--------------|-|
|--------------|-|
|-1-3-----1-3--|-|
|--------------|-|


 Phase your mind...     Play 8x  5.6.7.8.               
|----------------|-------------|---------------|-------------|----|
|----------------|-------------|---------------|-------------|----|
|----------------|-------------|---------------|-------------|----|
|----------------|-------------|-0h3-0h3p0-----|-------------|----|
|-5h6-5h6p5------|-------------|---------------|-------------|----|
|-----------1-2--|-2-2-3-3-3-3-|-----------1-2-|-2-2-3-3-3-3-|----|




                     Play 4x                   Play 2x 
||-----------|--------------||----------|-------------|
||o----------|-------------o||----------|-------------|
||-----------|-5-3---3------||----------|-------------|
||--3--4--5--|-----5---5-4--||----------|-5-3---3-----|
||o----------|-------------o||-3--4--5--|-----5---5-4-|
||-----------|--------------||----------|-------------|
|
||-----------|-8-6---6------||----------|-------------|
||o-6--7--8--|-----8---8-7-o||----------|-8-6---6-----|
||-----------|--------------||-5--6--7--|-----7---7-6-|
||-----------|--------------||----------|-------------|
||-----------|--------------||----------|-------------|
||-----------|--------------||----------|-------------|


                     Play 2x
||-----------|--------------||-------*|
||o----------|-------------o||-------*|
||-----------|-5-3---3------||-------*|
||--3--4--5--|-----5---5-4--||-------*|
||o----------|-------------o||-1S=3--*|
||-----------|--------------||-------*|
|
||-----------|-8-6---6------||-6S=8--*|
||o-6--7--8--|-----8---8-7-o||-------*|
||-----------|--------------||-------*|
||-----------|--------------||-------*|
||o----------|-------------o||-------*|
||-----------|--------------||-------*|
Добавлено: 10.09.2015
Другие материалы по этой песне:
  • Аккорды и текст

Страница создана 28.05.2012
http://primanota.ru/cathedral/phaser-quest-chords.htm
Привет, Гость.
Предлагаем пройти революционный курс по гитаре.
Подарок от PrimaNota.Ru, забирай!