PrimaNota.ru - самый крупный в мире бесплатный архив песенных текстов, аккордов, табулатур и нот


Cathedral - Oro The Manslayer - текст песни, таба, видео

Регистрация Запомнить меня
Войти через:  Facebook Google Twitter Vk Yandex Mail.ru

Cathedral - Oro The Manslayer - текст песни, таба, видео

Печатать
Просмотров: 110
Artist: Cathedral
Piece: Oro The Manslayer
Instrument: Guitar

                                ORO,THE MANSLAYER
                            As recorded by Cathedral
             (From the 2005 Album THE GARDEN OF UNEARTHLY DELIGHTS)

Gtr I (B E A D F# B) - 'Untitled'
Gtr II (B E A D F# B) - 'Untitled'

 4/4
  Gtr I
|------------------|-------------|-------------|-------------|------------|--|
|------------------|-------------|-------------|-------------|------------|--|
|--Drums-----------|-------------|-------------|-------------|------------|--|
|--and-------------|-------------|-------------|-------------|------------|--|
|--pick scratching-|-1h3-3-3-3-3-|-1h3-3-3-3-3-|-1h3-3-3-3-3-|------------|--|
|------------------|-------------|-------------|-------------|-2--2-2-2-2-|--|

|-------------|-------------|-------------|---------|----|
|-------------|-------------|-------------|---------|----|
|-------------|-------------|-------------|---------|----|
|-------------|-------------|-------------|-4-------|----|
|-1h3-3-3-3-3-|-1h3-3-3-3-3-|-1h3-3-3-3-3-|-2--4--6-|----|
|-------------|-------------|-------------|----2--4-|----|

|-------------|-------------|-------------|------------|----|
|-------------|-------------|-------------|------------|----|
|-------------|-------------|-------------|------------|----|
|-------------|-------------|-------------|------------|----|
|-1h3-3-3-3-3-|-1h3-3-3-3-3-|-1h3-3-3-3-3-|------------|----|
|-------------|-------------|-------------|-2--2-2-2-2-|----|

|-------------|-------------|-------------|--------|----|
|-------------|-------------|-------------|--------|----|
|-------------|-------------|-------------|--------|----|
|-------------|-------------|-------------|--------|----|
|-1h3-3-3-3-3-|-1h3-3-3-3-3-|-1h3-3-3-3-3-|--4/----|----|
|-------------|-------------|-------------|--2/----|----|


           
Under... Play 7x                     Play 8x
|-------------|  |------------| |------------|----|
|-------------|  |------------| |------------|----|
|-------------|  |------------| |------------|----|
|-------------|  |------------| |------------|----|
|-5--5-5-5-5--|  |------------| |------------|----|
|-------------|  |-5--5-5-5-5-| |-4--4-4-4-4-|----|

Streets...Play 7x                     Play 8x
|-------------|  |------------| |------------|----|
|-------------|  |------------| |------------|----|
|-------------|  |------------| |------------|----|
|-------------|  |------------| |------------|----|
|-5--5-5-5-5--|  |------------| |------------|----|
|-------------|  |-3--3-3-3-3-| |-2--2-2-2-2-|----|

|-------------|-------------|-------------|------------|----|
|-------------|-------------|-------------|------------|----|
|-------------|-------------|-------------|------------|----|
|-------------|-------------|-------------|------------|----|
|-1h3-3-3-3-3-|-1h3-3-3-3-3-|-1h3-3-3-3-3-|------------|----|
|-------------|-------------|-------------|-2--2-2-2-2-|----|

|-------------|-------------|-------------|---------|----|
|-------------|-------------|-------------|---------|----|
|-------------|-------------|-------------|---------|----|
|-------------|-------------|-------------|-4-------|----|
|-1h3-3-3-3-3-|-1h3-3-3-3-3-|-1h3-3-3-3-3-|-2--4--6-|----|
|-------------|-------------|-------------|----2--4-|----|

|-------------|-------------|-------------|------------|----|
|-------------|-------------|-------------|------------|----|
|-------------|-------------|-------------|------------|----|
|-------------|-------------|-------------|------------|----|
|-1h3-3-3-3-3-|-1h3-3-3-3-3-|-1h3-3-3-3-3-|------------|----|
|-------------|-------------|-------------|-2--2-2-2-2-|----|

|-------------|-------------|-------------|--------|----|
|-------------|-------------|-------------|--------|----|
|-------------|-------------|-------------|--------|----|
|-------------|-------------|-------------|--------|----|
|-1h3-3-3-3-3-|-1h3-3-3-3-3-|-1h3-3-3-3-3-|--4/----|----|
|-------------|-------------|-------------|--2/----|----|



Ferry... Play 7x                     Play 8x
|-------------|  |------------| |------------|----|
|-------------|  |------------| |------------|----|
|-------------|  |------------| |------------|----|
|-------------|  |------------| |------------|----|
|-5--5-5-5-5--|  |------------| |------------|----|
|-------------|  |-5--5-5-5-5-| |-4--4-4-4-4-|----|

Cities...Play 7x                     Play 8x
|-------------|  |------------| |------------|----|
|-------------|  |------------| |------------|----|
|-------------|  |------------| |------------|----|
|-------------|  |------------| |------------|----|
|-5--5-5-5-5--|  |------------| |------------|----|
|-------------|  |-3--3-3-3-3-| |-2--2-2-2-2-|----|


|-------------|-------------|-------------|------------|----|
|-------------|-------------|-------------|------------|----|
|-------------|-------------|-------------|------------|----|
|-------------|-------------|-------------|------------|----|
|-1h3-3-3-3-3-|-1h3-3-3-3-3-|-1h3-3-3-3-3-|------------|----|
|-------------|-------------|-------------|-2--2-2-2-2-|----|

|-------------|-------------|-------------|---------|----|
|-------------|-------------|-------------|---------|----|
|-------------|-------------|-------------|---------|----|
|-------------|-------------|-------------|-4-------|----|
|-1h3-3-3-3-3-|-1h3-3-3-3-3-|-1h3-3-3-3-3-|-2--4--6-|----|
|-------------|-------------|-------------|----2--4-|----|

|-------------|-------------|-------------|------------|----|
|-------------|-------------|-------------|------------|----|
|-------------|-------------|-------------|------------|----|
|-------------|-------------|-------------|------------|----|
|-1h3-3-3-3-3-|-1h3-3-3-3-3-|-1h3-3-3-3-3-|------------|----|
|-------------|-------------|-------------|-2--2-2-2-2-|----|

|-------------|-------------|-------------|--------|----|
|-------------|-------------|-------------|--------|----|
|-------------|-------------|-------------|--------|----|
|-------------|-------------|-------------|--------|----|
|-1h3-3-3-3-3-|-1h3-3-3-3-3-|-1h3-3-3-3-3-|--3/----|----|
|-------------|-------------|-------------|--------|----|




 Eyes of death...
|------|------|------|------|----|
|------|------|------|------|----|
|------|------|------|------|----|
|-8----|-7----|-6----|-5----|----|
|-6----|-7----|-4----|-5----|----|
|-6----|-5----|-4----|-3----|----|

 Destroyed by...
|------|------|------|------|----|
|------|------|------|------|----|
|------|------|------|------|----|
|-8----|-7----|-6----|-5----|----|
|-6----|-7----|-4----|-5----|----|
|-6----|-5----|-4----|-3----|----|

          Retribution...
|-----------------|-----------------|-----------------|-----------------|----|
|-----------------|-----------------|-----------------|-----------------|----|
|-----------------|-----------------|-----------------|-----------------|----|
|-8-x-x-x-8-x-x-x-|-7-x-x-x-7-x-x-x-|-6-x-x-x-6-x-x-x-|-5-x-x-x-5-x-x-x-|----|
|-6-x-x-x-6-x-x-x-|-7-x-x-x-5-x-x-x-|-4-x-x-x-4-x-x-x-|-5-x-x-x-5-x-x-x-|----|
|-6-x-x-x-6-x-x-x-|-5-x-x-x-5-x-x-x-|-4-x-x-x-4-x-x-x-|-3-x-x-x-3-x-x-x-|----|

   Des...
|-----------------|-----------------|-----------------|-------------|----|
|-----------------|-----------------|-----------------|-------------|----|
|-----------------|-----------------|-----------------|-------------|----|
|-8-x-x-x-8-x-x-x-|-7-x-x-x-7-x-x-x-|-6-x-x-x-6-x-x-x-|-5-x-x-x-5---|----|
|-6-x-x-x-6-x-x-x-|-7-x-x-x-5-x-x-x-|-4-x-x-x-4-x-x-x-|-5-x-x-x-5---|----|
|-6-x-x-x-6-x-x-x-|-5-x-x-x-5-x-x-x-|-4-x-x-x-4-x-x-x-|-3-x-x-x-3---|----|



|-------------|-------------|-------------|------------|----|
|-------------|-------------|-------------|------------|----|
|-------------|-------------|-------------|------------|----|
|-------------|-------------|-------------|------------|----|
|-1h3-3-3-3-3-|-1h3-3-3-3-3-|-1h3-3-3-3-3-|------------|----|
|-------------|-------------|-------------|-2--2-2-2-2-|----|

|-------------|-------------|-------------|---------|----|
|-------------|-------------|-------------|---------|----|
|-------------|-------------|-------------|---------|----|
|-------------|-------------|-------------|-4-------|----|
|-1h3-3-3-3-3-|-1h3-3-3-3-3-|-1h3-3-3-3-3-|-2--4--6-|----|
|-------------|-------------|-------------|----2--4-|----|

|-------------|-------------|-------------|------------|----|
|-------------|-------------|-------------|------------|----|
|-------------|-------------|-------------|------------|----|
|-------------|-------------|-------------|------------|----|
|-1h3-3-3-3-3-|-1h3-3-3-3-3-|-1h3-3-3-3-3-|------------|----|
|-------------|-------------|-------------|-2--2-2-2-2-|----|

|-------------|-------------|-------------|--------|----|
|-------------|-------------|-------------|--------|----|
|-------------|-------------|-------------|--------|----|
|-------------|-------------|-------------|--------|----|
|-1h3-3-3-3-3-|-1h3-3-3-3-3-|-1h3-3-3-3-3-|--4/----|----|
|-------------|-------------|-------------|--2/----|----|




A press is... Play 7x                     Play 8x
|-------------|      |------------| |------------|----|
|-------------|      |------------| |------------|----|
|-------------|      |------------| |------------|----|
|-------------|      |------------| |------------|----|
|-5--5-5-5-5--|      |------------| |------------|----|
|-------------|      |-5--5-5-5-5-| |-4--4-4-4-4-|----|

Strain...Play 7x                     Play 8x
|-------------|  |------------| |------------|----|
|-------------|  |------------| |------------|----|
|-------------|  |------------| |------------|----|
|-------------|  |------------| |------------|----|
|-5--5-5-5-5--|  |------------| |------------|----|
|-------------|  |-3--3-3-3-3-| |-2--2-2-2-2-|----|


|-------------|-------------|-------------|------------|----|
|-------------|-------------|-------------|------------|----|
|-------------|-------------|-------------|------------|----|
|-------------|-------------|-------------|------------|----|
|-1h3-3-3-3-3-|-1h3-3-3-3-3-|-1h3-3-3-3-3-|------------|----|
|-------------|-------------|-------------|-2--2-2-2-2-|----|

|-------------|-------------|-------------|---------|----|
|-------------|-------------|-------------|---------|----|
|-------------|-------------|-------------|---------|----|
|-------------|-------------|-------------|-4-------|----|
|-1h3-3-3-3-3-|-1h3-3-3-3-3-|-1h3-3-3-3-3-|-2--4--6-|----|
|-------------|-------------|-------------|----2--4-|----|

|-------------|-------------|-------------|------------|----|
|-------------|-------------|-------------|------------|----|
|-------------|-------------|-------------|------------|----|
|-------------|-------------|-------------|------------|----|
|-1h3-3-3-3-3-|-1h3-3-3-3-3-|-1h3-3-3-3-3-|------------|----|
|-------------|-------------|-------------|-2--2-2-2-2-|----|

|-------------|-------------|-------------|--------|----|
|-------------|-------------|-------------|--------|----|
|-------------|-------------|-------------|--------|----|
|-------------|-------------|-------------|--------|----|
|-1h3-3-3-3-3-|-1h3-3-3-3-3-|-1h3-3-3-3-3-|-3/-----|----|
|-------------|-------------|-------------|--------|----|




 Eyes of death...
|------|------|------|------|----|
|------|------|------|------|----|
|------|------|------|------|----|
|-8----|-7----|-6----|-5----|----|
|-6----|-7----|-4----|-5----|----|
|-6----|-5----|-4----|-3----|----|

 Destroyed by...
|------|------|------|------|----|
|------|------|------|------|----|
|------|------|------|------|----|
|-8----|-7----|-6----|-5----|----|
|-6----|-7----|-4----|-5----|----|
|-6----|-5----|-4----|-3----|----|

          Retribution...
|-----------------|-----------------|-----------------|-----------------|----|
|-----------------|-----------------|-----------------|-----------------|----|
|-----------------|-----------------|-----------------|-----------------|----|
|-8-x-x-x-8-x-x-x-|-7-x-x-x-7-x-x-x-|-6-x-x-x-6-x-x-x-|-5-x-x-x-5-x-x-x-|----|
|-6-x-x-x-6-x-x-x-|-7-x-x-x-5-x-x-x-|-4-x-x-x-4-x-x-x-|-5-x-x-x-5-x-x-x-|----|
|-6-x-x-x-6-x-x-x-|-5-x-x-x-5-x-x-x-|-4-x-x-x-4-x-x-x-|-3-x-x-x-3-x-x-x-|----|

  Des...
|-----------------|-----------------|-----------------|--------------|----|
|-----------------|-----------------|-----------------|--------------|----|
|-----------------|-----------------|-----------------|--------------|----|
|-8-x-x-x-8-x-x-x-|-7-x-x-x-7-x-x-x-|-6-x-x-x-6-x-x-x-|-5-x-x-x-5----|----|
|-6-x-x-x-6-x-x-x-|-7-x-x-x-5-x-x-x-|-4-x-x-x-4-x-x-x-|-5-x-x-x-5----|----|
|-6-x-x-x-6-x-x-x-|-5-x-x-x-5-x-x-x-|-4-x-x-x-4-x-x-x-|-3-x-x-x-3----|----|



|-------------|-------------|-------------|------------|----|
|-------------|-------------|-------------|------------|----|
|-------------|-------------|-------------|------------|----|
|-------------|-------------|-------------|------------|----|
|-1h3-3-3-3-3-|-1h3-3-3-3-3-|-1h3-3-3-3-3-|------------|----|
|-------------|-------------|-------------|-2--2-2-2-2-|----|

|-------------|-------------|-------------|---------|----|
|-------------|-------------|-------------|---------|----|
|-------------|-------------|-------------|---------|----|
|-------------|-------------|-------------|-4-------|----|
|-1h3-3-3-3-3-|-1h3-3-3-3-3-|-1h3-3-3-3-3-|-2--4--6-|----|
|-------------|-------------|-------------|----2--4-|----|

|-------------|-------------|-------------|------------|----|
|-------------|-------------|-------------|------------|----|
|-------------|-------------|-------------|------------|----|
|-------------|-------------|-------------|------------|----|
|-1h3-3-3-3-3-|-1h3-3-3-3-3-|-1h3-3-3-3-3-|------------|----|
|-------------|-------------|-------------|-2--2-2-2-2-|----|

|-------------|-------------|-------------|-----------|
|-------------|-------------|-------------|-----------|
|-------------|-------------|-------------|-----6---5-|
|-------------|-------------|-------------|-5---4---3-|
|-1h3-3-3-3-3-|-1h3-3-3-3-3-|-1h3-3-3-3-3-|-3---------|
|-------------|-------------|-------------|-----------|



 Bass                    Bass and drums
|---------------------|-----------------------|-------------|--------------|
|---------------------|-----------------------|-------------|--------------|
|---------------------|-----------------------|-5-----------|--------------|
|---------------------|-----------------------|-3--4--5--2--|----7---------|
|---------------------|-----------------------|----2--3--0--|-6--5--7--4---|
|---------------------|-----------------------|-------------|-4-----5--2---|

 Rhythm under solo
                   Play 4x                    Play 4x
|-------------------------||-------------------------|----|
|-------------------------||-------------------------|----|
|-------------------------||-------------------------|----|
|-------------------------||-------------------------|----|
|-------------------------||-------------------------|----|
|-1-1-1-1-1-1-1-1-1-1-1-1-||-4-4-4-4-4-4-4-4-4-4-4-4-|----|


   Play 4x                    Play 4x              (solo ends)
|-------------------------||-------------------------|----|
|-------------------------||-------------------------|----|
|-------------------------||-------------------------|----|
|-------------------------||-------------------------|----|
|-------------------------||-------------------------|----|
|-1-1-1-1-1-1-1-1-1-1-1-1-||-4-4-4-4-4-4-4-4-4-4-4-4-|----|




       Play 2x         Play 2x
|-------------|  |------------| |-------|----|
|-------------|  |------------| |-------|----|
|-5-----5-----|  |------------| |-------|----|
|-3--4--3--4--|  |----7-----7-| |-------|----|
|----2-----2--|  |-6--5--6--5-| |-7--4--|----|
|-------------|  |-4-----4----| |-5--2--|----|

 
                         Play 4x
|-------------------------------|
|-------------------------------|
|-------------------------------|
|----------------8-8-8-10-10-10-|
|-8-8-8-11-11-11----------------|
|-------------------------------|

                               Play 4x                         Play 4x
|-------------------------------------||------------------------------|
|-------------------------------------||------------------------------|
|-------------------------------------||------------------------------|
|-------------------11-11-11-13-13-13-||----------------9-9-9-11-11-11|
|-11-11-11-14-14-14-------------------||-9-9-9-12-12-12---------------|
|-------------------------------------||------------------------------|

                   Play 4x
|-------------------------|
|-------------------------|
|-------------------------|
|-------------6-6-6-8-8-8-|
|-6-6-6-9-9-9-------------|
|-------------------------|

                                                            Play 2x
||--------------------------------|--------------------------------|
||o-------------------------------|-------------------------------o|
||--------------------------------|--------------------------------|
||-----------------8-8-8-10-10-10-|----------------8-8-8-11-11-11--|
||o-8-8-8-11-11-11----------------|-8-8-8-11-11-11----------------o|
||--------------------------------|--------------------------------|

                                                                       Play 2x
|--------------------------------------||-------------------------------------|
|-------------------------------------o||-------------------------------------|
|--------------------------------------||-------------------------------------|
|-------------------11-11-11-13-13-13--||-------------------11-11-11-14-14-14-|
|-11-11-11-14-14-14-------------------o||-11-11-11-14-14-14-------------------|
|--------------------------------------||-------------------------------------|

                                                            Play 2x
||--------------------------------|--------------------------------|
||o-------------------------------|-------------------------------o|
||--------------------------------|--------------------------------|
||-----------------9-9-9-11-11-11-|----------------9-9-9-12-12-12--|
||o-9-9-9-12-12-12----------------|-9-9-9-12-12-12----------------o|
||--------------------------------|--------------------------------|

                                                Play 2x              
||--------------------------|--------------------------|
||o-------------------------|-------------------------o|
||--------------------------|--------------------------|
||--------------6-6-6-8-8-8-|-------------6-6-6-9-9-9--|
||o-6-6-6-9-9-9-------------|-6-6-6-9-9-9-------------o|
||--------------------------|--------------------------|



                                                         Play 4x
||--------------------------------|-----------------------------|
||o-------------------------------|----------------------------o|
||--------------------------------|-----------------------------|
||-----------------8-8-8-10-10-10-|-------------8-8-8-10-10-10--|
||o-8-8-8-11-11-11----------------|-8-8-8-9-9-9----------------o|
||--------------------------------|-----------------------------|




|------------------|------------------|
|------------------|------------------|
|------------------|------------------|
|-8h10-10-10-10-10-|-8h10-10-10-10-10-|
|------------------|------------------|
|------------------|------------------|


|------------------|------------------|
|------------------|------------------|
|------------------|------------------|
|-8h10-10-10-10-10-|-8-10-10-10-10-10-|
|------------------|------------------|
|------------------|------------------|



 Guit.I
|---------------|------------------|-------------------|
|---------------|------------------|-------------------|
|---------------|------------------|-------------------|
|-8h10-10-10-10-|-8h10-10-10-10-10-|-8h10-10-10-10-10--|
|---------------|------------------|-------------------|
|---------------|------------------|-------------------|
|
|Guit,II
|---------------|------------------|-------------------|
|-8--x--8S=9--9-|-8S=6--6----------|-8-----------------|
|-8--x--8S10-10-|-8S=7--7----------|-8-----------7-----|
|---------------|------------------|-------------8-----|
|---------------|------------------|-------------------|
|---------------|------------------|-------------------|

 Guit.I
|--------------------|--------------------|
|--------------------|--------------------|
|--------------------|--------------------|
|--8h10-10-10-10-10--|--8h=10-10-10-10-10-|
|--------------------|--------------------|
|--------------------|--------------------|
|
|Guit.II
|--------------------|--------------------|
|--------------------|--9/----------------|
|-10S==========3--3--|-10/--------7-----7-|
|-12S==========5--5--|------------8-----8-|
|--------------------|--------------------|
|--------------------|--------------------|

 Guit.I
|------------------|--------------------|
|------------------|--------------------|
|------------------|--------------------|
|-8-10-10-10-10-10-|--8h=10-10-10-10-10-|
|------------------|--------------------|
|------------------|--------------------|
|
|Guit.II
|------------------|--------------------|
|-8-----9-----9----|-11/-----8-----8----|
|-8----10----10----|-12/-----8-----8----|
|------------------|--------------------|
|------------------|--------------------|
|------------------|--------------------|

 Guit.I
|--------------------|-------------------|--------------------|
|--------------------|-------------------|--------------------|
|--------------------|-------------------|--------------------|
|--8h=10-10-10-10-10-|--8-10-10-10-10-10-|--8h10-10-10-10-10--|
|--------------------|-------------------|--------------------|
|--------------------|-------------------|--------------------|
|
|Guit.II
|--------------------|-------------------|--------------------|
|--9/----------------|-------------------|--------------------|
|-10/-----7-----7----|--8-----8S====7----|--8-----------7-----|
|---------8-----8----|-10----10S====8----|-10-----------8-----|
|--------------------|-------------------|--------------------|
|--------------------|-------------------|--------------------|

 Guit.I
|--------------------|--------------------|
|--------------------|--------------------|
|--------------------|--------------------|
|--8h=10-10-10-10-10-|--8h=10-10-10-10-10-|
|--------------------|--------------------|
|--------------------|--------------------|
|
|Guit.II
|--------------------|--------------------|
|--------------------|--------------------|
|--8/--------5-----5-|--8/--------3-----3-|
|-10/--------7-----7-|-10/--------5-----5-|
|--------------------|--------------------|
|--------------------|--------------------|

 Guit.I
|------------------|-------------------|--------------------|
|------------------|-------------------|--------------------|
|------------------|-------------------|--------------------|
|-8h10-10-10-10-10-|--8h10-10-10-10-10-|--8h10-10-10-10-10--|
|------------------|-------------------|--------------------|
|------------------|-------------------|--------------------|
|
|Guit.II
|------------------|-------------------|--------------------|
|-8--------8--9----|-11-----------9----|-11-----------8-----|
|-8--------8-10----|-12----------10----|-12-----------8-----|
|------------------|-------------------|--------------------|
|------------------|-------------------|--------------------|
|------------------|-------------------|--------------------|

 Guit.I                                                Play 4x
|------------------|-------------------|   |------------------|----|
|------------------|-------------------|   |------------------|----|
|------------------|-------------------|   |------------------|----|
|-8h10-10-10-10-10-|--8h10-10-10-10-10-|   |-8h10-10-10-10-10-|----|
|------------------|-------------------|   |------------------|----|
|------------------|-------------------|   |------------------|----|
|
|Guit.II
|------------------|-------------------|   |------------------|----|
|-8h=======9-------|--9S=======6-----8-|   |------------------|----|
|-8h======10-------|-10S=======7-----8-|   |------------------|----|
|------------------|-------------------|   |-8h10-10-10-10-10-|----|
|------------------|-------------------|   |------------------|----|
|------------------|-------------------|   |------------------|----|



       Play 2x          Play 2x           Play 2x
|-------------|  |-------------|   |-------------||
|-------------|  |-------------|   |-------------||
|-------7-----|  |-------------|   |-------8-----||
|-9p7-9---9-7-|  |-------7-----|   |-8p6-8---8-6-||
|-------------|  |-9p7-9---9-7-|   |-------------||
|-------------|  |-------------|   |-------------||

       Play 2x             Play 2x
|-------------|  |----------------|
|-------------|  |----------------|
|-------------|  |----------------|
|-------8-----|  |---------9------|
|-8p6-8---8-6-|  |-11p9-11---11-9-|
|-------------|  |----------------|

             Play 2x             Play 2x                Play 2x
|-------------------|  |----------------|  |-------------------|
|-------------------|  |----------------|  |-------------------|
|----------11-------|  |----------------|  |-------------------|
|-13p11-13----13-11-|  |---------8------|  |----------10-------|
|-------------------|  |-10p8-10---10-8-|  |-12p10-12----12-10-|
|-------------------|  |----------------|  |-------------------|


Play 2x          Play 2x           Play 2x
|-------------|  |-------------|   |-------------||
|-------------|  |-------------|   |-------------||
|-------7-----|  |-------------|   |-------8-----||
|-9p7-9---9-7-|  |-------7-----|   |-8p6-8---8-6-||
|-------------|  |-9p7-9---9-7-|   |-------------||
|-------------|  |-------------|   |-------------||

       Play 2x             Play 2x
|-------------|  |----------------|
|-------------|  |----------------|
|-------------|  |----------------|
|-------8-----|  |---------9------|
|-8p6-8---8-6-|  |-11p9-11---11-9-|
|-------------|  |----------------|

             Play 2x             Play 2x                
|-------------------|  |----------------|  |-------------------|---------------|
|-------------------|  |----------------|  |-------------------|---------------|
|----------11-------|  |----------------|  |-------------------|---------------|
|-13p11-13----13-11-|  |---------8------|  |----------10-------|---------------|
|-------------------|  |-10p8-10---10-8-|  |-12p10-12----12-10-|-12h10-10--12--|
|-------------------|  |----------------|  |-------------------|---------------|



|-------------|-------------|-------------|------------|----|
|-------------|-------------|-------------|------------|----|
|-------------|-------------|-------------|------------|----|
|-------------|-------------|-------------|------------|----|
|-1h3-3-3-3-3-|-1h3-3-3-3-3-|-1h3-3-3-3-3-|------------|----|
|-------------|-------------|-------------|-2--2-2-2-2-|----|

|-------------|-------------|-------------|---------|----|
|-------------|-------------|-------------|---------|----|
|-------------|-------------|-------------|---------|----|
|-------------|-------------|-------------|-4-------|----|
|-1h3-3-3-3-3-|-1h3-3-3-3-3-|-1h3-3-3-3-3-|-2--4--6-|----|
|-------------|-------------|-------------|----2--4-|----|

|-------------|-------------|-------------|------------|----|
|-------------|-------------|-------------|------------|----|
|-------------|-------------|-------------|------------|----|
|-------------|-------------|-------------|------------|----|
|-1h3-3-3-3-3-|-1h3-3-3-3-3-|-1h3-3-3-3-3-|------------|----|
|-------------|-------------|-------------|-2--2-2-2-2-|----|

|-------------|-------------|-------------|--------|----|
|-------------|-------------|-------------|--------|----|
|-------------|-------------|-------------|--------|----|
|-------------|-------------|-------------|--------|----|
|-1h3-3-3-3-3-|-1h3-3-3-3-3-|-1h3-3-3-3-3-|--4/----|----|
|-------------|-------------|-------------|--2/----|----|


Battle... Play 7x                     Play 4x
|-------------|   |------------| |------------||------------------------------------------|
|-------------|   |------------| |------------||------------------------------------------|
|-------------|   |------------| |------------||--------------------------------7-7-7--10-|
|-------------|   |------------| |------------||------------------6-6-6--9-9-9------------|
|-5--5-5-5-5--|   |------------| |------------||----5-5-5--8-8-8--------------------------|
|-------------|   |-5--5-5-5-5-| |-4--4-4-4-4-||-7----------------------------------------|

Layed...Play 7x                        Play 8x
|-------------|  |------------| |------------|----|
|-------------|  |------------| |------------|----|
|-------------|  |------------| |------------|----|
|-------------|  |------------| |------------|----|
|-5--5-5-5-5--|  |------------| |------------|----|
|-------------|  |-3--3-3-3-3-| |-2--2-2-2-2-|----|



|-------------|-------------|-------------|------------|----|
|-------------|-------------|-------------|------------|----|
|-------------|-------------|-------------|------------|----|
|-------------|-------------|-------------|------------|----|
|-1h3-3-3-3-3-|-1h3-3-3-3-3-|-1h3-3-3-3-3-|------------|----|
|-------------|-------------|-------------|-2--2-2-2-2-|----|

|-------------|-------------|-------------|---------|----|
|-------------|-------------|-------------|---------|----|
|-------------|-------------|-------------|---------|----|
|-------------|-------------|-------------|-4-------|----|
|-1h3-3-3-3-3-|-1h3-3-3-3-3-|-1h3-3-3-3-3-|-2--4--6-|----|
|-------------|-------------|-------------|----2--4-|----|

|-------------|-------------|-------------|------------|----|
|-------------|-------------|-------------|------------|----|
|-------------|-------------|-------------|------------|----|
|-------------|-------------|-------------|------------|----|
|-1h3-3-3-3-3-|-1h3-3-3-3-3-|-1h3-3-3-3-3-|------------|----|
|-------------|-------------|-------------|-2--2-2-2-2-|----|

|-------------|-------------|-------------|-------|----|
|-------------|-------------|-------------|-------|----|
|-------------|-------------|-------------|-------|----|
|-------------|-------------|-------------|-------|----|
|-1h3-3-3-3-3-|-1h3-3-3-3-3-|-1h3-3-3-3-3-|-3/----|----|
|-------------|-------------|-------------|-------|----|



 Eyes of death...
|------|------|------|------|----|
|------|------|------|------|----|
|------|------|------|------|----|
|-8----|-7----|-6----|-5----|----|
|-6----|-7----|-4----|-5----|----|
|-6----|-5----|-4----|-3----|----|

 Destroyed by...
|------|------|------|------|----|
|------|------|------|------|----|
|------|------|------|------|----|
|-8----|-7----|-6----|-5----|----|
|-6----|-7----|-4----|-5----|----|
|-6----|-5----|-4----|-3----|----|

          Retribution...
|-----------------|-----------------|-----------------|-----------------|----|
|-----------------|-----------------|-----------------|-----------------|----|
|-----------------|-----------------|-----------------|-----------------|----|
|-8-x-x-x-8-x-x-x-|-7-x-x-x-7-x-x-x-|-6-x-x-x-6-x-x-x-|-5-x-x-x-5-x-x-x-|----|
|-6-x-x-x-6-x-x-x-|-7-x-x-x-5-x-x-x-|-4-x-x-x-4-x-x-x-|-5-x-x-x-5-x-x-x-|----|
|-6-x-x-x-6-x-x-x-|-5-x-x-x-5-x-x-x-|-4-x-x-x-4-x-x-x-|-3-x-x-x-3-x-x-x-|----|

   Des...
|-----------------|-----------------|-----------------|--------------|----|
|-----------------|-----------------|-----------------|--------------|----|
|-----------------|-----------------|-----------------|--------------|----|
|-8-x-x-x-8-x-x-x-|-7-x-x-x-7-x-x-x-|-6-x-x-x-6-x-x-x-|-5-x-x-x-5----|----|
|-6-x-x-x-6-x-x-x-|-7-x-x-x-5-x-x-x-|-4-x-x-x-4-x-x-x-|-5-x-x-x-5----|----|
|-6-x-x-x-6-x-x-x-|-5-x-x-x-5-x-x-x-|-4-x-x-x-4-x-x-x-|-3-x-x-x-3----|----|



|-------------|-------------|-------------|------------|----|
|-------------|-------------|-------------|------------|----|
|-------------|-------------|-------------|------------|----|
|-------------|-------------|-------------|------------|----|
|-1h3-3-3-3-3-|-1h3-3-3-3-3-|-1h3-3-3-3-3-|------------|----|
|-------------|-------------|-------------|-2--2-2-2-2-|----|

|-------------|-------------|-------------|---------|----|
|-------------|-------------|-------------|---------|----|
|-------------|-------------|-------------|---------|----|
|-------------|-------------|-------------|-4-------|----|
|-1h3-3-3-3-3-|-1h3-3-3-3-3-|-1h3-3-3-3-3-|-2--4--6-|----|
|-------------|-------------|-------------|----2--4-|----|

|-------------|-------------|-------------|------------|----|
|-------------|-------------|-------------|------------|----|
|-------------|-------------|-------------|------------|----|
|-------------|-------------|-------------|------------|----|
|-1h3-3-3-3-3-|-1h3-3-3-3-3-|-1h3-3-3-3-3-|------------|----|
|-------------|-------------|-------------|-2--2-2-2-2-|----|


|------------------|----------------|-----------|-----------*|
|------------------|----------------|-----------|-----------*|
|------------------|----------------|-----------|-----------*|
|-5-5-5-5--3-3-3-3-|-------------6--|-5---------|-5-5-5-5---*|
|-3-3-3-3--1-1-1-1-|-6-6-6-6--3--4--|-3---------|-3-3-3-3---*|
|------------------|-4-4-4-4--1-----|-----------|-----------*|
Добавлено: 10.09.2015
Другие материалы по этой песне:
  • Аккорды и текст

Страница создана 06.11.2014
http://primanota.ru/cathedral/oro-manslayer-chords.htm
Привет, Гость.
Предлагаем пройти революционный курс по гитаре.
Подарок от PrimaNota.Ru, забирай!