PrimaNota.ru - самый крупный в мире бесплатный архив песенных текстов, аккордов, табулатур и нот


Cathedral - Nightmare Castle - текст песни, таба, видео

Регистрация Запомнить меня
Войти через:  Facebook Google Twitter Vk Yandex Mail.ru

Cathedral - Nightmare Castle - текст песни, таба, видео

Печатать
Просмотров: 148
Уроки эстрадного вокала в Санкт-Петербурге
Artist: Cathedral
Piece: Nightmare Castle
Instrument: Guitar

                                NIGHTMARE CASTLE
                            As recorded by Cathedral
                (From the 1996 Album SUPERNATURAL BIRTH MACHINE)

Gtr I (C F Bb Eb G C) - 'Untitled'
Gtr II (C F Bb Eb G C) - 'Untitled'

 4/4
  Gtr I
|-----|
|-----|Effects and bass intro
|-----|
|-----|
|-----|
|-----|


      Play 4x                              ~~
|------------||------------------|------------|-----------------|----|
|------------||o-----------------|------------|-----------------|----|
|----------9-||------------------|------------|-----------------|----|
|-9--6--5--7-||--6p5-6p5-6p5-6p5-|-6p5-6p5-4/-|-6p5-6p5-6p5-6p5-|----|
|-7--6--6--0-||o-----------------|------------|-----------------|----|
|-0----------||------------------|------------|-----------------|----|


                                                    ~
|---------------------|-----------------|-------------|-----------------|
|---------------------|-----------------|-------------|-----------------|
|-----------6---------|-----------------|-------------|-----------------|
|-5h6p5h6p5---5h6p5-4-|-6p5-6p5-6p5-6p5-|-6p5-6p5S1S7-|-6p5-6p5-6p5-6p5-|
|---------------------|-----------------|-------------|-----------------|
|---------------------|-----------------|-------------|-----------------|


          ~~                      The evil... 8x      You wanna burn in hell
|-------------||------|--------|  |--------------|    |----------------|
|------------o||------|--------|  |--------------|    |----------------|
|-------------||------|--------|  |--------------|    |-4-----4--------|
|-6p5-6p5-4/--||-5--3-|-6--8/--|  |--------------|    |-2--5--2-5-4----|
|------------o||-3--1-|-4--6/--|  |-------3-2----|    |----3----3-2----|
|-------------||------|--------|  |-5--1-------2-|    |----------------|

With us you dwell Can't see the signs That led...
|-------------|-------------|-------------|-------|
|-------------|-------------|-------------|-------|
|-4-----4-----|-------------|-------------|-------|
|-2--5--2-5-4-|-6S=2--6-2-1-|-6S=2--6-2-1-|-3/----|
|----3----3-2-|-7S=3--7-3-2-|-7S=3--7-3-2-|-1/----|
|-------------|-------------|-------------|-------|

 Green icy fingers...        ~~
|------------------|------------|-----------------|----|
|o-----------------|------------|-----------------|----|
|------------------|------------|-----------------|----|
|--6p5-6p5-6p5-6p5-|-6p5-6p5-4/-|-6p5-6p5-6p5-6p5-|----|
|o-----------------|------------|-----------------|----|
|------------------|------------|-----------------|----|


                                                    ~
|---------------------|-----------------|-------------|-----------------|
|---------------------|-----------------|-------------|-----------------|
|-----------6---------|-----------------|-------------|-----------------|
|-5h6p5h6p5---5h6p5-4-|-6p5-6p5-6p5-6p5-|-6p5-6p5S1S7-|-6p5-6p5-6p5-6p5-|
|---------------------|-----------------|-------------|-----------------|
|---------------------|-----------------|-------------|-----------------|


          ~~                        A crimson... 8x       You gonna burn in hell
|-------------||------|--------|    |--------------|      |----------------|
|------------o||------|--------|    |--------------|      |----------------|
|-------------||------|--------|    |--------------|      |-4-----4--------|
|-6p5-6p5-4/--||-5--3-|-6--8/--|    |--------------|      |-2--5--2-5-4----|
|------------o||-3--1-|-4--6/--|    |-------3-2----|      |----3----3-2----|
|-------------||------|--------|    |-5--1-------2-|      |----------------|

               Didn't see the signs...
|-------------|-------------|-------------|-------|
|-------------|-------------|-------------|-------|
|-4-----4-----|-------------|-------------|-------|
|-2--5--2-5-4-|-6S=2--6-2-1-|-6S=2--6-2-1-|-3/----|
|----3----3-2-|-7S=3--7-3-2-|-7S=3--7-3-2-|-1/----|
|-------------|-------------|-------------|-------|

Nightmare castle...          ~~
|------------------|------------|-----------------|----|
|o-----------------|------------|-----------------|----|
|------------------|------------|-----------------|----|
|--6p5-6p5-6p5-6p5-|-6p5-6p5-4/-|-6p5-6p5-6p5-6p5-|----|
|o-----------------|------------|-----------------|----|
|------------------|------------|-----------------|----|


                                                    ~
|---------------------|-----------------|-------------|-----------------|
|---------------------|-----------------|-------------|-----------------|
|-----------6---------|-----------------|-------------|-----------------|
|-5h6p5h6p5---5h6p5-4-|-6p5-6p5-6p5-6p5-|-6p5-6p5S1S7-|-6p5-6p5-6p5-6p5-|
|---------------------|-----------------|-------------|-----------------|
|---------------------|-----------------|-------------|-----------------|

         ~~                    
|-------------|
|------------o|
|-------------|
|-6p5-6p5-4/--|
|------------o|
|-------------|

|------|--------|  
|------|--------| 
|------|--------| 
|-5--3-|-6--8/--|
|-3--1-|-4--6/--| 
|------|--------|

|------------------|------------------|
|------------10-10-|------------10-10-|
|---------11-------|---------11-------|
|---10-11----------|---10-11----------|
|-9----------------|-8----------------|
|------------------|------------------|

                                  Play 2x
|------------------|---------------------|----|
|------------10-10-|------------10S12-12-|----|
|---------11-------|---------11----------|----|
|---10-11----------|---10-11-------------|----|
|-9----------------|-8-------------------|----|
|------------------|---------------------|----|

                               Play 4x
|--------|--------|--------|----------||---------|------|------|------|
|--------|--------|--------|----------||o--------|------|------|------|
|--------|--------|--------|----------||---------|------|------|------|
|-7--7h9-|-7--7h9-|-7--7h9-|---6b7r=6-||--11--10-|-7--6S|=3--2-|------|
|--------|--------|--------|----------||o--9---8-|-5--4S|=1--0-|-5--4-|
|--------|--------|--------|-9--------||---------|------|------|-3--2-|
|
| ~~~~~~~~~~~~~~~~~~~~~~~~~~~~~
|--------|--------|--------|----------||---------|------|------|------|
|--------|--------|--------|----------||o--------|------|------|------|
|--------|--------|--------|----------||---------|------|------|------|
|--------|--------|--------|----------||--11--10-|-7--6S|=3--2-|------|
|-9------|-8------|-5------|-4--------||o--9---8-|-5--4S|=1--0-|-5--4-|
|--------|--------|--------|----------||---------|------|------|-3--2-|

Nightmare castle...          ~~
|------------------|------------|-----------------|----|
|o-----------------|------------|-----------------|----|
|------------------|------------|-----------------|----|
|--6p5-6p5-6p5-6p5-|-6p5-6p5-4/-|-6p5-6p5-6p5-6p5-|----|
|o-----------------|------------|-----------------|----|
|------------------|------------|-----------------|----|
                                                    ~
|---------------------|-----------------|-------------|-----------------|
|---------------------|-----------------|-------------|-----------------|
|-----------6---------|-----------------|-------------|-----------------|
|-5h6p5h6p5---5h6p5-4-|-6p5-6p5-6p5-6p5-|-6p5-6p5S1S7-|-6p5-6p5-6p5-6p5-|
|---------------------|-----------------|-------------|-----------------|
|---------------------|-----------------|-------------|-----------------|
        ~~                    
|-------------|
|------------o|
|-------------|
|-6p5-6p5-4/--|
|------------o|
|-------------


The cryptic...   Play 16x
|--------------|
|--------------| 
|--------------| 
|--------------| 
|-------3-2----|
|-5--1-------2-| 


From the 17th time til fade out
GtrI
|--------------------|----------------------|
|--------------------|----------------------|
|--------------------|----------------------|
|--------------------|----------------------|
|-----------3--2-----|-----------3--2-------|
|-5----1----------2--|-5----1----------2----|
|Gtr II
|--------------------|----------------------|
|--------------------|----------------------|
|--------------------|----------------------|
|--------------------|----------------------|
|-4---------7--6-----|-4---------7--6-------|
|------5----------7--|------5----------7----|
|Gtr III
|--------------------|----------------------|
|--------------------|----------------------|
|-6---------9--8-----|-6---------9--8-------|
|------7----------9--|------7----------9----|
|--------------------|----------------------|
|--------------------|----------------------|
Добавлено: 10.09.2015
Другие материалы по этой песне:
  • Аккорды и текст

Страница создана 29.02.2012
http://primanota.ru/cathedral/nightmare-castle-chords.htm
Привет, Гость.
Предлагаем пройти революционный курс по гитаре.
Подарок от PrimaNota.Ru, забирай!