PrimaNota.ru - самый крупный в мире бесплатный архив песенных текстов, аккордов, табулатур и нот


Cathedral - Kaleidoscope of Desire - текст песни, таба, видео

Регистрация Запомнить меня
Войти через:  Facebook Google Twitter Vk Yandex Mail.ru

Cathedral - Kaleidoscope of Desire - текст песни, таба, видео

Печатать
Просмотров: 153
Уроки эстрадного вокала в Санкт-Петербурге
                       Cathedral-Kaleidoscope of desire
                       from the album"caravan beyond redemption"
                        copyrigth 1999 Earache
 corrections
would be helpful !

standard tuning-E


Intro1 x2 times with distortion
e|-------------------------------|
B|-------------------------------|
G|-------------------------------|
D|---3-7-8-7-3-3~let ring--------|
A|-------------------------------|
E|-------------------------------|
Intro2 x2 times
e|-------------------------------|
B|-------------------------------|
G|-------------------------------|
D|---0h3-3h7-8-7-3-3~let ring----|
A|-------------------------------|
E|-------------------------------|

verse:
Riff 1 x4 times with distortion and wah-wah 
e|---------------|--------------|
B|---------------|--------------|
G|---------------|--------------|
D|---3-7-8-7-3-3-|-3-7-8-7-3-3--|
A|---------------|--------------|
E|---------------|--------------|

e|---------------|--------------|
B|---------------|--------------|
G|---------------|--------------|
D|---3-7-8-7-3---|-3-7-8-7-3-5--|
A|-------------5-|--------------|
E|---------------|--------------|

chorus:
Riff 2 x2 times with clean
e|-------------|--------------|
B|-------------|--------------|
G|-10--7--9-9--|-10--7--9-99--|
D|-10--7--9-9--|-10--7--9-99--|
A|--8--5--7-7--|--8--5--7-77--|
E|-------------|--------------|

bridge:
Riff 3 x4 times and with the solo (clean)
e|--------------------------------------------------|
B|--------------------------------------------------|
G|--8--8---8--8--88-----10-10-10-8---6---66-6-8-10--|
D|--8--8---8--8--88-----10-10-10-8---6---66-6-8-10--|
A|--6--6---6--6--66------8--8--8-6---4---44-4-6--8--|
E|--------------------------------------------------|

solo like this:    x2 times
e|-----------------------------------------------|
B|-----------------------------------------------|
G|-----------------------------------------------|
D|-5h6~-5--3-1----5h6~-5--3-1-------1----6b6~----|
A|----------------------------3~-----------------|
E|-----------------------------------------------|


Song structure: intro1
                intro2
                verse
                chorus
                verse
                chorus
                bridge
                solo
                verse
                chorus
                end(dissolvence)
                                         /  - slide up to              
        
                                         \  - slide down to            
                                                                  ~  - vibrato
              
                                         b  - bend                     
         
                                         p - pull-off         
                                         h - hammer-on                



Hail DOOM!
--             
Alex Mancini

        hillel.s@tiscalinet.it



 
     
Добавлено: 22.10.2013
Другие материалы по этой песне:
  • Аккорды и текст

Страница создана 08.06.2012
http://primanota.ru/cathedral/kaleidoscope-of-desire-chords.htm
Привет, Гость.
Предлагаем пройти революционный курс по гитаре.
Подарок от PrimaNota.Ru, забирай!