PrimaNota.ru - самый крупный в мире бесплатный архив песенных текстов, аккордов, табулатур и нот


Cathedral - Golden Blood (flooding) - текст песни, таба, видео

Регистрация Запомнить меня
Войти через:  Facebook Google Twitter Vk Yandex Mail.ru

Cathedral - Golden Blood (flooding) - текст песни, таба, видео

Печатать
Просмотров: 56
Artist: Cathedral
Piece: Golden Blood (flooding)
Instrument: Guitar

                             GOLDEN BLOOD (FLOODING)
                            As recorded by Cathedral
                        (From the 1992 EP SOUL SACRIFICE)

NO SOLOS!IMPROVISE YOURSELF!IT'S AGOOD WAY TO IMPROVE YOUR PLAYING!

Gtr I (B E A D F# B) - 'Untitled'
Gtr II (B E A D F# B) - 'Untitled
Gtr III (B E A D F# B) - 'Acoustic
Gtr IV (B E A D F# B) - 'Acoustic
Gtr V (B E A D F# B) - 'Untitled
All notes sounds 1/4 down

 4/4
  Gtr I     other guitar makes a solo over this rhythm   Play 4x
|--------|----------------|--------|----------------------------|
|--------|----------------|--------|----------------------------|
|--------|----------------|--------|----------------------------|
|--------|-7--7S9-9-------|--------|-9S11-11S7-7----------------|
|-9--7-9-|-5--5S7-7-5-4---|-9--7-9-|-7S=9--9S5-5-7-5-4h5p4------|
|-7--5-7-|--------------5-|-7--5-7-|-----------------------5----|

 
Play 8x 
vocals enters at 5th time                    
5.Crystal towers...                         7. 8.
|-------|----------|       |--------|-------------|
|-------|----------|       |--------|-------------|
|-------|----------|       |--------|-------------|
|-------|----------|       |--------|-------------|
|-9-----|----------|       |-9------|-------------|
|-7-----|-5---4--1-|       |-7------|-5---4--1----|
|                          |
|-------|----------|       |--------|-------------|
|-------|----------|       |--------|-------------|
|-------|----------|       |--------|-6---5-------|
|-------|----------|       |--------|--------7----|
|-------|----------|       |-9------|-------------|
|-------|----------|       |-7------|-------------|



 Gtr III             Floating thru                            
|--12---------------------------------12--|--10------------------------9---------5--|
|-----------------------------------------|-----------------------------------------|
|-----------------------------------------|----------------------------0------------|
|-----------------------------------------|-----------------------------------------|
|-----------------------------------------|-----------------------------------------|
|-----------------------------------------|-----------------------------------------|
|Gtr IV
|-----------------------------------------|-----------------------------------------|
|-----------<12>----------------<12>------|-----------<12>----------------<12>------|
|------<12>------<12>------<12>------<12>-|------<12>------<12>------<12>------<12>-|
|-<12>----------------<12>----------------|-<12>----------------<12>----------------|
|-----------------------------------------|-----------------------------------------|
|-----------------------------------------|-----------------------------------------|

 Gtr III          A whimsical breeze
|--------5S==================7------------|--------5--------------------------------|
|-----------------------------------------|-----------------------------------------|
|-----------------------------------------|---------------------------------0-------|
|-----------------------------------------|-----------------------------------------|
|-----------------------------------------|-----------------------------------------|
|-----------------------------------------|-----------------------------------------|
|Gtr IV
|-----------------------------------------|-----------------------------------------|
|-----------<12>----------------<12>------|-----------<12>----------------<12>------|
|------<12>------<12>------<12>------<12>-|------<12>------<12>------<12>------<12>-|
|-<12>----------------<12>----------------|-<12>----------------<12>----------------|
|-----------------------------------------|-----------------------------------------|
|-----------------------------------------|-----------------------------------------|

 Gtr III           Just lure the fault
|-----------------------------------------|---7-------------------7/----------------|
|---7-------------------------------------|-----------------------------------------|
|-----------------------------------------|-----------------------0-----------------|
|-----------------------------------------|-----------------------------------------|
|-----------------------------------------|-----------------------------------------|
|-----------------------------------------|-----------------------------------------|
|Gtr IV
|-----------------------------------------|-----------------------------------------|
|-----------12------------------12--------|-----------12------------------12--------|
|------12--------12--------12--------12---|------12--------12--------12--------12---|
|-12------------------12------------------|-12------------------12------------------|
|-----------------------------------------|-----------------------------------------|
|-----------------------------------------|-----------------------------------------|

 Gtr III          Of discovery
|---0---------0----0---------0----0-------|----|
|-----------------------------------------|----|
|--------------------------------------0--|----|
|--------------------------------------5--|----|
|-----------------------------------------|----|
|-----------------------------------------|----|
|Gtr IV
|-----------------------------------------|----|
|-----------<12>----------------<12>------|----|
|------<12>------<12>------<12>------<12>-|----|
|-<12>----------------<12>----------------|----|
|-----------------------------------------|----|
|-----------------------------------------|----|


|------------|---------------|------------|-----------|----|
|------------|---------------|------------|-----------|----|
|------------|---------------|------------|-----------|----|
|------------|---------------|------------|-----------|----|
|---4h5-7-7/-|---4h5-7-7S9S7-|---4h5-7-7/-|---4h5-7-9-|----|
|-0----------|-0-------------|-0----------|-0---------|----|



Gtr I   other guitar makes a solo over this rhythm      Play 4x
|--------|----------------|--------|----------------------------|
|--------|----------------|--------|----------------------------|
|--------|----------------|--------|----------------------------|
|--------|-7--7S9-9-------|--------|-9S11-11S7-7----------------|
|-9--7-9-|-5--5S7-7-5-4---|-9--7-9-|-7S=9--9S5-5-7-5-4h5p4------|
|-7--5-7-|--------------5-|-7--5-7-|-----------------------5----|

 
Play 8x 
vocals enters at 5th time                    
5.Assassin of...                             7. 8.
|-------|----------|       |--------|-------------|
|-------|----------|       |--------|-------------|
|-------|----------|       |--------|-------------|
|-------|----------|       |--------|-------------|
|-9-----|----------|       |-9------|-------------|
|-7-----|-5---4--1-|       |-7------|-5---4--1----|
|                          |
|-------|----------|       |--------|-------------|
|-------|----------|       |--------|-------------|
|-------|----------|       |--------|-6---5-------|
|-------|----------|       |--------|--------7----|
|-------|----------|       |-9------|-------------|
|-------|----------|       |-7------|-------------|




 Gtr III               Golden blood
|---7------------------------7----7-------|--------7----7S===9----7S===5----9----9--|
|-----------------------------------------|-----------------------------------------|
|-----------------------------------------|---0-------------------------------------|
|-----------------------------------------|-----------------------------------------|
|-----------------------------------------|-----------------------------------------|
|-----------------------------------------|-----------------------------------------|
|Gtr IV
|-----------------------------------------|-----------------------------------------|
|-----------<12>----------------<12>------|-----------<12>----------------<12>------|
|------<12>------<12>------<12>------<12>-|------<12>------<12>------<12>------<12>-|
|-<12>----------------<12>----------------|-<12>----------------<12>----------------|
|-----------------------------------------|-----------------------------------------|
|-----------------------------------------|-----------------------------------------|

  Gtr III                 Flooding from me   
|--------9---10---12----9-----------------|--10p===9---------9---10p===9---------9--|
|-----------------------------------------|------------12------------------12-------|
|-----------------------------------------|-----------------------0-----------------|
|-----------------------------------------|-----------------------------------------|
|-----------------------------------------|-----------------------------------------|
|-----------------------------------------|-----------------------------------------|
|Gtr IV
|-----------------------------------------|-----------------------------------------|
|-----------12------------------12--------|-----------12-----------------12---------|
|------12--------12--------12-------12----|------12--------12--------12------12-----|
|-12------------------12------------------|-12-------------------12-----------------|
|-----------------------------------------|-----------------------------------------|
|-----------------------------------------|-----------------------------------------|

 Gtr III                   Into eternal
|--10---10p===9---------------------------|-----------------------------------------|
|-----------------------9---10---12---10--|---9--------------9---10---------9-------|
|-----------------11----------------------|--------9---11-------------11--------10--|
|-----------------------------------------|--------------------------------------0--|
|-----------------------------------------|-----------------------------------------|
|-----------------------------------------|-----------------------------------------|
|Gtr IV
|-----------------------------------------|-----------------------------------------|
|-----------12--------------------12------|-----------12--------------------12------|
|------12--------12----------12--------12-|------12--------12----------12--------12-|
|-12--------------------12----------------|-12------------------12------------------|
|-----------------------------------------|-----------------------------------------|
|-----------------------------------------|-----------------------------------------|

 Gtr III     Cynical streams
|-----------------------------------------|----|
|-----------------------------------------|----|
|---6----7----0----6----7-----------------|----|
|-------------5---------------------------|----|
|-----------------------------------------|----|
|-----------------------------------------|----|
|Gtr IV
|-----------------------------------------|----|
|-----------<12>----------------<12>------|----|
|------<12>------<12>------<12>------<12>-|----|
|-<12>----------------<12>----------------|----|
|-----------------------------------------|----|
|-----------------------------------------|----|



|------------|---------------|------------|-----------|----|
|------------|---------------|------------|-----------|----|
|------------|---------------|------------|-----------|----|
|------------|---------------|------------|-----------|----|
|---4h5-7-7/-|---4h5-7-7S9S7-|---4h5-7-7/-|---4h5-7-9-|----|
|-0----------|-0-------------|-0----------|-0---------|----|



  Play 2x
|----------------------|------------------|
|----------------------|------------------|
|----------10S12-10----|--------9S11-9----|
|-------10----------12-|------9--------11-|
|----12----------------|---11-------------|
|-10-------------------|-9----------------|

 Play 2x
|------------------|---------------|----|
|------------------|---------------|----|
|--------8S10-8----|-------7S9-7---|----|
|------8--------10-|-----7-------9-|----|
|---10-------------|---9-----------|----|
|-8----------------|-7-------------|----|

 Play 2x
|----------------------|--------------------|
|----------11S13-11----|--------10S12-10----|
|-------10----------12-|------9----------11-|
|----12----------------|---11---------------|
|-10-------------------|-9------------------|
|----------------------|--------------------|


|---------------|---------------|----|
|---------------|---------------|----|
|---------------|---------------|----|
|---------------|---------------|----|
|---------------|---------------|----|
|-5h7-7-7-7S6-6-|-1h3-3-3-3S2-2-|----|


|---------------|-----------|---------------|---------------|----|
|---------------|-----------|---------------|---------------|----|
|---------------|-----------|---------------|---------------|----|
|---------------|-----------|---------------|---------------|----|
|---------------|---------3-|---------------|---------------|----|
|-4h6-6-6-6S5-5-|-3-3-3-3---|-5h7-7-7-7S6-6-|-1h3-3-3-3S2-2-|----|

                      Play 2x
|---------------|-------------|   |-------------------------|----|
|---------------|-------------|   |-------------------------|----|
|---------------|-------------|   |-------------------------|----|
|---------------|-----8-----8-|   |-------------------------|----|
|---------------|-5-5-6-5-5-6-|   |-5-5-5-5--5-5-5-5-5--3---|----|
|-4h6-6-6-6S5-5-|-3-3---3-3---|   |-3-3-3-3--3-3-3-3-3----1-|----|


|------------------------|-------------------------|-------------------------|
|------------------------|-------------------------|-------------------------|
|------------------------|-------------------------|-------------------------|
|------------------------|-------------------------|-------------------------|
|-5-5-5-5--5-5-5-5-5--6--|-5-5-5-5--5-5-5-5-5--3---|-5-5-5-5--5-5-5-5-5--3---|
|-3-3-3-3--3-3-3-3-3-----|-3-3-3-3--3-3-3-3-3----1-|-3-3-3-3--3-3-3-3-3----1-|



|-------------------------|-------------------------|-------------------------|
|-------------------------|-------------------------|-------------------------|
|-------------------------|-------------------------|-------------------------|
|-------------------------|-------------------------|-------------------------|
|-5-5-5-5--5-5-5-5-5--3---|-5-5-5-5--5-5-5-5-5--6---|-5-5-5-5--5-5-5-5-5--3---|
|-3-3-3-3--3-3-3-3-3----1-|-3-3-3-3--3-3-3-3-3------|-3-3-3-3--3-3-3-3-3----1-|


|-------------------------|----------------------|
|-------------------------|----------------------|
|-------------------------|----------------------|
|-------------------------|--------------------5-|
|-5-5-5-5--5-5-5-5-5--3---|--------------------3-|
|-3-3-3-3--3-3-3-3-3----1-|-3-3-3-3--3-3-3-3-3---|



            Guitar makes licks under this rhythm
2.Dismayed by the...                               Play 2x                
|-----------------------------|---------------------------||-------|
|-----------------------------|---------------------------||-------|
|-----------------------------|---------------------------||-------|
|-5-x-x-8-8S10-10-10-10S5-3-5-|-5-x-x-8-10S12-10-10S8-3-5-||-------|
|-3-x-x-6-6S=8--8--8--8S3-1-3-|-3-x-x-6--8S10--8--8S6-1-3-||--5----|
|-----------------------------|---------------------------||--3----|

                   Ooh,yeah!               I am  Play 4x      
|----------------------|--------------------------|
|----------------------|--------------------------|
|----------------------|--------------------------|
|----------------------|--------------------------|
|-4-4-4-4--4-4-4-4-4-1-|-4-4-4-4--4-4-4-4-4-3p1---|
|-2-2-2-2--2-2-2-2-2---|-2-2-2-2--2-2-2-2-2-----2-|



Guitar makes licks under this rhythm
2.Charcoaled spirit...                             Play 2x                
|-----------------------------|---------------------------||-------|
|-----------------------------|---------------------------||-------|
|-----------------------------|---------------------------||-------|
|-5-x-x-8-8S10-10-10-10S5-3-5-|-5-x-x-8-10S12-10-10S8-3-5-||-------|
|-3-x-x-6-6S=8--8--8--8S3-1-3-|-3-x-x-6--8S10--8--8S6-1-3-||--5----|
|-----------------------------|---------------------------||--3----|


                                           Play 4x
|----------------------|--------------------------|
|----------------------|--------------------------|
|----------------------|--------------------------|
|----------------------|--------------------------|
|-4-4-4-4--4-4-4-4-4-1-|-4-4-4-4--4-4-4-4-4-3p1---|
|-2-2-2-2--2-2-2-2-2---|-2-2-2-2--2-2-2-2-2-----2-|


                      Play 8x          Silence  Yeaaaaaahhhhhhh,ooooohhhhhhh Play 2x
|-----------------------------||------|        |-----------------------|---|
|-----------------------------||-----o|        |-----------------------|---|
|-----------------------------||------|        |-----------------------|---|
|-----------------------------||-5----|        |-----------------------|---|
|-3-0-0-3-0-0-3h4-3-0-0-3-0-0-||-3-4-o|        |-4---5--3--------------|---|
|-----------------------------||---2--|        |-4---5--3--4b5r===4-2--|---|


|------------------------|----------------------------|
|------------------------|----------------------------|
|------------------------|----------------------------|
|------------------------|----------------------------|
|-4----5--3--------------|-4-----5---3----------------|
|-4----5--3--4b5r==4-2---|-4-----5---3---4b5r===4-2---|
|
|------------------------|----------------------------|
|------------------------|----------------------------|
|------------------------|----------------------------|
|------------------------|----------------------------|
|-4----5--3--2b3r==2-----|-4-----5---3----------------|
|-4----5--3----------2---|-4-----5---3---4b5r===4-2---|



 Gtr I                       Play 4x
|-----------------|-----------------|
|-----------------|-----------------|
|-----------------|-----------------|
|-----------------|-----------------|
|-3-----3-----3-4-|-3-----3-----4---|
|---4-2---4-2-----|---4-2---4-2---2-|
|Gtr II
|-----------------|-----------------|
|-----------------|-----------------|
|-5-----5-----5-6-|-5-----5-----6---|
|---6-4---6-4-----|---6-4---6-4---4-|
|-----------------|-----------------|
|-----------------|-----------------|
|Gtr V
|-----------------|-----------------|
|-5-----5-----5-6-|-5-----5-----6---|
|---5-----5-------|---5-----5-------|
|-----7-----7-----|-----7-----7---7-|
|-----------------|-----------------|
|-----------------|-----------------|

 
                             Play 4x                 Play 4x
|-----------------|-----------------|   |-------------------|
|-----------------|-----------------|   |-------------------|
|-----------------|-----------------|   |-------------------|
|-----------------|-----------------|   |-------------------|
|-3-------4---4-6-|-3-------5---5-7-|   |-3-----6p5-8-6p5---|
|---4-3-5---5-----|---4-3-6---6-----|   |---4-3-----------6-|


                             Play 2x                         Play 2x
|-----------------|-----------------|   |-------------|-------------|
|-----------------|-----------------|   |-------------|-------------|
|-------------2-3-|-5-------3-------|   |-------------|-------3-----|
|-------2-1-5-----|---2-4-5---2-5-4-|   |---5-4---5-4-|---5-4---5-4-|
|-2-4-5-----------|-----------------|   |-2-----2-----|-2-----------|
|-----------------|-----------------|   |-------------|-------------|


 Gtr I                   Play 2x                                         Play 2x
|-------------|-------------|     |-----------------|-------------|---------|
|-------------|-------3-----|     |-----------------|-------------|---------|
|---4-3---4-3-|---4-3---4-3-|     |-----------------|-------------|---------|
|-------------|-------------|     |-4-4-4-4-4-4-4-4-|-4-4-4-9-7---|---------|
|-5-----5-----|-5-----------|     |-2-2-2-2-2-2-2-2-|-2-2-2-7-5---|---------|
|-------------|-------------|     |-----------------|-----------2-|-2-1--3--|
|Gtr II                           |
|-------------|-------------|     |-----------------|-------------|---------|
|-------------|-------------|     |-----------------|-------------|---------|
|-------------|-------3-----|     |-----------------|-------------|---------|
|---5-4---5-4-|---5-4---5-4-|     |-4-4-4-4-4-4-4-4-|-4-4-4-9-7---|---------|
|-2-----2-----|-2-----------|     |-2-2-2-2-2-2-2-2-|-2-2-2-7-5---|---------|
|-------------|-------------|     |-----------------|-----------2-|-2-1--3--|


             Play 4x       Gtr I        Play 4x                                          
|-------------------|     |-------------------|
|-------------------|     |-------------------|
|-------------------|     |---------2S4-2-----|This guitar play the 4th interval
|---------2S4-2-----|     |---------------5-4-|
|-2-5-4-0-------5-4-|     |-2-5-4-0-----------|
|-------------------|     |-------------------|
|                         |Gtr II
|-------------------|     |-------------------|
|-------------------|     |-------------------|
|-------------------|     |-------------------|
|---------2S4-2-----|     |---------2S4-2-----|
|-2-5-4-0-------5-4-|     |-2-5-4-0-------5-4-|
|-------------------|     |-------------------|



|-------------|-------------|-------------|---------------|
|-------------|-------------|-------------|---------------|
|-------------|-------------|-------------|---------------|
|-----2-------|-------------|-----2-------|---------------|
|-------1---1-|-0---2p1-2-1-|-------1---1-|-0---2p1p0-----|
|-0-0-----0---|---0---------|-0-0-----0---|---0-------3-5-|


|-------------|-------------|-------------|---------------|-----|
|-------------|-------------|-------------|---------------|-----|
|-------------|-------------|-------------|---------------|-----|
|-----2-------|-------------|-----2-------|---------------|-----|
|-------1---1-|-0---2p1-2-1-|-------1---1-|-0---2p1p0-----|-----|
|-0-0-----0---|---0---------|-0-0-----0---|---0-------3-5-|-3-5-|


|-------------|-------------|-------------|---------------|
|-------------|-------------|-------------|---------------|
|-------------|-------------|-------------|---------------|
|-----2-------|-------------|-----2-------|---------------|
|-------1---1-|-0---2p1-2-1-|-------1---1-|-0---2p1p0-----|
|-0-0-----0---|---0---------|-0-0-----0---|---0-------3-5-|

                                                                  
|-------------|-------------|-------------|---------------|-----|------|
|-------------|-------------|-------------|---------------|-----|-8-9--|Guit I
|-------------|-------------|-------------|---------------|-----|-8-9--|Guit II
|-----2-------|-------------|-----2-------|---------------|-----|------|
|-------1---1-|-0---2p1-2-1-|-------1---1-|-0---2p1p0-----|-----|------|
|-0-0-----0---|---0---------|-0-0-----0---|---0-------3-5-|-3-5-|------|


 Spectacle of severity        Chasing myself away from me
|-------------|-------------|-------------|---------------|
|-------------|-------------|-------------|---------------|
|-------------|-------------|-------------|---------------|
|-----2-------|-------------|-----2-------|---------------|
|-------1---1-|-0---2p1-2-1-|-------1---1-|-0---2p1p0-----|
|-0-0-----0---|---0---------|-0-0-----0---|---0-------3-5-|

 Blemished wings of vibrancy  Elevate this bane from me   You see a bane
|-------------|-------------|-------------|---------------|-----|------|
|-------------|-------------|-------------|---------------|-----|-8-9--|Guit I
|-------------|-------------|-------------|---------------|-----|-8-9--|Guit II
|-----2-------|-------------|-----2-------|---------------|-----|------|
|-------1---1-|-0---2p1-2-1-|-------1---1-|-0---2p1p0-----|-----|------|
|-0-0-----0---|---0---------|-0-0-----0---|---0-------3-5-|-3-5-|------|

  You see
|---------------------*|----|
|---------------------*|----|
|---------------------*|----|
|---------------------*|----|
|------------5h7--8/--*|----|
|---------0-------6/--*|----|
Добавлено: 10.09.2015
Другие материалы по этой песне:
  • Аккорды и текст

Страница создана 30.07.2012
http://primanota.ru/cathedral/golden-blood-flooding-chords.htm
Привет, Гость.
Предлагаем пройти революционный курс по гитаре.
Подарок от PrimaNota.Ru, забирай!