PrimaNota.ru - самый крупный в мире бесплатный архив песенных текстов, аккордов, табулатур и нот


Cathedral - Garden - таба, видео

Регистрация Запомнить меня
Войти через:  Facebook Google Twitter Vk Yandex Mail.ru

Cathedral - Garden - таба, видео

Печатать
Просмотров: 152
.  - palm mute           /  - slide up to
  - slide down to       ~  - vibrato
h  - hammer on           b  - Bend
p  - pull off            Suffixes for bend
t  - tap                 f  - full bend    h - half bend
ph - pinched harmonic    q  - quarter bend t - tap bend
*  - see comment         ^  - Hold bend    r release bend
x  - Stuccatto           ~  - vibrato bend
,  - slight palm mute    () - ghost note, sustained note
"  - tremolo note        <> - Trill

Tuning B,E,A,D,F#,B

Intro (whispers,drum kicks,bass,synthesizers)
0:00 - 1:27
|-11-----------------------|
|--------------------------|
|--------------------------|
|--------------------------|
|--------------------------|
|-3------------------------|



1:28

   3/4
  Acoustic Gtr.I
 1.Myriad has formed...                             Play 4x
||--------0-----|-------0-----|-------0-----|-------0------|
||o-----7-------|-----7-------|-----6-------|-----7-------o|
||----6---------|---7---------|---5---------|---7----------|
||--4-----------|-0-----------|-3-----------|-0------------|
||o-------------|-------------|-------------|-------------o|
||--------------|-------------|-------------|--------------|
|
| Acoustic Gtr.II
||------7-5-7---|-----7-5-7---|-----6-5-6---|-----6-5-6----|
||o---7-------7-|---7-------7-|---6-------6-|---6-------6-o|
||--6-----------|-6-----------|-5-----------|-5------------|
||--------------|-------------|-------------|--------------|
||o-------------|-------------|-------------|-------------o|
||--------------|-------------|-------------|--------------|

4. na           ked
|-------0-----|-------0-------|
|-----6-------|-----8---------|
|---5---------|---7-----------|
|-3-----------|-5-------------|
|-------------|---------------|
|-------------|---------------|
|
| Acoustic Gtr.II
|-----6-5-6---|-----6-5-6----|
|---6-------6-|---6-------6--|
|-5-----------|-5------------|
|-------------|--------------|
|-------------|--------------|
|-------------|--------------|


 see
 Acoustic Gtr.I
|-------0-----|-------0---|-------0----|-------0---|
|-----5-------|-----5-----|-----3------|-----3-----|
|---4---------|---4-------|---2--------|---2-------|
|-2-----------|-2---------|-0----------|-0---------|
|-------------|-----------|------------|-----------|
|-------------|-----------|------------|-----------|
|
|Acoustic Gtr.II
|-------------|-----------|------------|-----------|
|-7h9-----9-7-|---------7-|-8-----8S10S|=7---------|
|-------------|-9-----9---|------------|-----------|
|-------------|-----------|------------|-----------|
|-------------|-----------|------------|-----------|
|-------------|-----------|------------|-----------|
|
|Acoustic Gtr.III
|-----5---5---|-----5---5-|-----3----3-|-----3---3-|
|---5-----5---|---5-----5-|---3------3-|---3-----3-|
|-4-------4---|-4-------4-|-2--------2-|-2-------2-|
|-------------|-----------|------------|-----------|
|-------------|-----------|------------|-----------|
|-------------|-----------|------------|-----------|

 Acoustic Gtr.I
|---------0--|--------0----|--------0---|--------0---|
|-------5----|-----5-------|------3-----|------3-----|
|-----4------|---4---------|----2-------|----2-------|
|---2--------|-2-----------|--0---------|--0---------|
|------------|-------------|------------|------------|
|------------|-------------|------------|------------|
|
|
|Acoustic Gtr.II
|------------|-------------|------------|------------|
|---9--------|-9-----10S12-|-10---------|-10-9-7-----|
|------------|-------------|------------|------------|
|------------|-------------|------------|------------|
|------------|-------------|------------|------------|
|------------|-------------|------------|------------|
|
|Acoustic Gtr.III
|-----5---5--|-----5-----5-|------3---3-|------3---3-|
|---5-----5--|---5-------5-|----3-----3-|----3-----3-|
|-4-------4--|-4---------4-|--2-------2-|--2-------2-|
|------------|-------------|------------|------------|
|------------|-------------|------------|------------|
|------------|-------------|------------|------------|

Acoustic Gtr.I
|-------0-----|-------0-----|
|-----6-------|-----8-------|
|---5---------|---7---------|
|-3-----------|-5-----------|
|-------------|-------------|
|-------------|-------------|
|
|
|Acoustic Gtr.II                                                     ~
|-------------|-------------|
|-8-----------|-------------|
|-------------|-------------|
|-------------|-------------|
|-------------|-------------|
|-------------|-------------|
|
|Acoustic Gtr.III
|-----6---6---|-----8---8---|
|---6---6---6-|---8---8---8-|
|-5-----------|-7-----------|
|-------------|-------------|
|-------------|-------------|
|-------------|-------------|




Acoustic Gtr.I
 1.Curiosity...                                     Play 2x
||--------0-----|-------0-----|-------0-----|-------0------|
||o-----7-------|-----7-------|-----6-------|-----7-------o|
||----6---------|---7---------|---5---------|---7----------|
||--4-----------|-0-----------|-3-----------|-0------------|
||o-------------|-------------|-------------|-------------o|
||--------------|-------------|-------------|--------------|
|
| Acoustic Gtr.II
||------7-5-7---|-----7-5-7---|-----6-5-6---|-----6-5-6----|
||o---7-------7-|---7-------7-|---6-------6-|---6-------6-o|
||--6-----------|-6-----------|-5-----------|-5------------|
||--------------|-------------|-------------|--------------|
||o-------------|-------------|-------------|-------------o|
||--------------|-------------|-------------|--------------|

Acoustic Gtr.I
poi    soned  desti
|-------0-----|-------0-------|
|-----6-------|-----8---------|
|---5---------|---7-----------|
|-3-----------|-5-------------|
|-------------|---------------|
|-------------|---------------|
|
| Acoustic Gtr.II
|-----6-5-6---|-----6-5-6----|
|---6-------6-|---6-------6--|
|-5-----------|-5------------|
|-------------|--------------|
|-------------|--------------|
|-------------|--------------|



 ny
 Acoustic Gtr.I           Play 4x
|-------0-----|-------0-----|
|-----7-------|-----7-------|
|---6---------|---6---------|
|-4-----------|-------------|
|-------------|-4-----------|
|-------------|-------------|
|
|Acoustic Gtr.II
|-----7-5-7---|-----7-5-7---|
|---7-------7-|---7-------7-|
|-6-----------|-6-----------|
|-------------|-------------|
|-------------|-------------|
|-------------|-------------|



2:25
 4/4                                         Play 4x
|-------------------------|-------------------------|
|-------------------------|-------------------------|
|-------------------------|-------------------------|
|-------------------------|-------------------------|
|-------------------------|-------------------------|
|-2-5-2-5-2-5-2-5-2-5-2-5-|-1-4-1-4-1-4-1-4-1-4-1-4-|


                                              Play 3x
|-------------------------|--------------------------|
|-------------------------|--------------------------|
|-------------------------|--------------------------|
|-------2-2-2-5-5-5-------|-------2-2-2-5--8-5-8-5---|
|-4-4-4-0-0-0-3-3-3-5-5-5-|-4-4-4-0-0-0-3--6-3-6-3-5-|
|-2-2-2-------------3-3-3-|-2-2-2------------------3-|

|-------------------------|----------|
|-------------------------|----------|
|-------------------------|----------|
|-------2-2-2-5-5-5-------|-2--------|
|-4-4-4-0-0-0-3-3-3-5-5-5-|-0--------|
|-2-2-2-------------3-3-3-|----------|




                                      Play 4x
|-----------------------|--------------------|
|-----------------------|--------------------|
|-----------------------|--------------------|
|-----------------------|--------------------|
|-----------------------|------------------1-|
|-2--2-5-2-0-2--2-5-2-0-|-2--2-5-2-0-5-2-0---|



 1.Hordes of goats??...               Play 4x
  PM---------------------------------------|
|-----------------------|--------------------|
|-----------------------|--------------------|
|-----------------------|--------------------|
|-----------------------|--------------------|
|-----------------------|------------------1-|
|-2--2-5-2-0-2--2-5-2-0-|-2--2-5-2-0-5-2-0---|


    He has cho sen...
|---------|---------|----------|----------|
|---------|---------|----------|----------|
|---------|---------|----------|----------|
|-7----10-|-9-------|-7-----10-|-9--8-8-8-|
|-5-----8-|-7----8--|-5------8-|-7--6-6-6-|
|---------|------6--|----------|----------|
   In his hea  ven...
|---------|---------|-----------|----------|
|---------|---------|-----------|----------|
|---------|---------|-----------|----------|
|-7----10-|-9-------|-7----7-10-|-9------5-|
|-5-----8-|-7----8--|-5----5--8-|-7------3-|
|---------|------6--|-----------|----------|


  (screams,yellings)                  Play 4x
|-----------------------|--------------------|
|-----------------------|--------------------|
|-----------------------|--------------------|
|-----------------------|--------------------|
|-----------------------|------------------1-|
|-2--2-5-2-0-2--2-5-2-0-|-2--2-5-2-0-5-2-0---|



 1.Flowers of blood...                Play 4x
  PM---------------------------------------|
|-----------------------|--------------------|
|-----------------------|--------------------|
|-----------------------|--------------------|
|-----------------------|--------------------|
|-----------------------|------------------1-|
|-2--2-5-2-0-2--2-5-2-0-|-2--2-5-2-0-5-2-0---|


     We have cho sen...
|---------|---------|----------|----------|
|---------|---------|----------|----------|
|---------|---------|----------|----------|
|-7----10-|-9-------|-7-----10-|-9--8-8-8-|
|-5-----8-|-7----8--|-5------8-|-7--6-6-6-|
|---------|------6--|----------|----------|
    This's our heaven...
|---------|---------|-----------|----------|
|---------|---------|-----------|----------|
|---------|---------|-----------|----------|
|-7----10-|-9-------|-7----7-10-|-9------5-|
|-5-----8-|-7----8--|-5----5--8-|-7------3-|
|---------|------6--|-----------|----------|



 4:34 (Jethro Tull's like harmonies)
 Gtr.I                                                                  Play 2x
|-----9h10--9------|------------------|-----9h10--9-----|----------------------|
|--------------10--|-9--10S12-10S9----|--------------10-|-9--10h12p10-9h10p9---|
|-11---------------|---------------9--|-11--------------|--------------------9-|
|------------------|------------------|-----------------|----------------------|
|------------------|------------------|-----------------|----------------------|
|------------------|------------------|-----------------|----------------------|
|
|Gtr.II
|--9---------------|------------------|--9--------------|----------------------|
|-----8----10------|----10S12-10S9----|-----8----10-----|----10h12p10-9h10p9---|
|---------------7--|-9-------------9--|---------------7-|-9------------------9-|
|------------------|------------------|-----------------|----------------------|
|------------------|------------------|-----------------|----------------------|
|------------------|------------------|-----------------|----------------------|


|---------9--10--|-----9---------|
|-10--12---------|-12-----10-----|
|----------------|------------9--|
|----------------|---------------|
|----------------|---------------|
|----------------|---------------|
|
|---------9--10--|-----9---------|
|-10--12---------|-12-----10-----|
|----------------|------------9--|
|----------------|---------------|
|----------------|---------------|
|----------------|---------------|


Gtr.I                                                                  Play 2x
|-----9h10--9------|------------------|-----9h10--9-----|----------------------|
|--------------10--|-9--10S12-10S9----|--------------10-|-9--10h12p10-9h10p9---|
|-11---------------|---------------9--|-11--------------|--------------------9-|
|------------------|------------------|-----------------|----------------------|
|------------------|------------------|-----------------|----------------------|
|------------------|------------------|-----------------|----------------------|
|
|Gtr.II
|--9---------------|------------------|--9--------------|----------------------|
|-----8----10------|----10S12-10S9----|-----8----10-----|----10h12p10-9h10p9---|
|---------------7--|-9-------------9--|---------------7-|-9------------------9-|
|------------------|------------------|-----------------|----------------------|
|------------------|------------------|-----------------|----------------------|
|------------------|------------------|-----------------|----------------------|
 Gtr.I
|---------9--10--|-----9---------|
|-10--12---------|-12-----10-----|
|----------------|------------9--|
|----------------|---------------|
|----------------|---------------|
|----------------|---------------|
|
|Gtr.II
|---------9--10--|-----9---------|
|-10--12---------|-12-----10-----|
|----------------|------------9--|
|----------------|---------------|
|----------------|---------------|
|----------------|---------------|




  Still...
|------------------|------------------|------------------|--------------|
|------------------|------------------|------------------|--------------|
|------------------|------------------|------------------|--------------|
|-10-----7---9-7-9-|-10-----7---9-7-9-|-10-----7---9-7-9-|-10-----7--9--|
|-----9------------|-----9------------|-----9------------|-----9--------|
|------------------|------------------|------------------|--------------|

 (Lee and the female singer make a question/answer here)
|---------------------|------------------|
|---------------------|------------------|
|---------------------|------------------|
|-8p7-8--8p7-8--8p7-8-|--8p7-8--7--8--9--|
|---------------------|------------------|
|---------------------|------------------|

 Haggard marbled...
|------------------|------------------|------------------|--------------|
|------------------|------------------|------------------|--------------|
|------------------|------------------|------------------|--------------|
|-10-----7---9-7-9-|-10-----7---9-7-9-|-10-----7---9-7-9-|-10-----7--9--|
|-----9------------|-----9------------|-----9------------|-----9--------|
|------------------|------------------|------------------|--------------|

 (Lee and the female singer make a question/answer here)
|----------------------|------------------|
|----------------------|------------------|
|--------7p6-7---------|--7p6-7-----------|
|-8p7-8---------8p7-8--|---------7--8--9--|
|----------------------|------------------|
|----------------------|------------------|


Poisoned perfume...
|------------------|------------------|------------------|--------------|
|------------------|------------------|------------------|--------------|
|------------------|------------------|------------------|--------------|
|-10-----7---9-7-9-|-10-----7---9-7-9-|-10-----7---9-7-9-|-10-----7--9--|
|-----9------------|-----9------------|-----9------------|-----9--------|
|------------------|------------------|------------------|--------------|

 (Lee and the female singer make a question/answer here)
 Here there is a third intervall
|----------------------|------------------|
|-Gtr.I----------------|------------------|
|-7p6-7--7p6-7--7p6-7--|--7p6-7-----------|
|-8p7-8--8p7-8--8p7-8--|--8p7-8--7--8--9--|
|-Gtr.II---------------|------------------|
|----------------------|------------------|

|------------------|------------------|--------------|
|------------------|------------------|--------------|
|------------------|------------------|--------------|
|-10-----7---9-7-9-|-10-----7---9-7-9-|-10-----7---9-|
|-----9------------|-----9------------|-----9--------|
|------------------|------------------|--------------|

 Drums

 5:55
 Haggard marble...
|-----------------|----------------|----------------------|----------------|
|-----------------|----------------|----------------------|----------------|
|-----------------|----------------|----------------------|----------------|
|-----------------|----------------|----------------------|----------------|
|-3-----0---2-0-2-|-3-----0--2p0-2-|-0-----1S3---2S3S2----|-0-----1S3---2--|
|----2------------|----2-----------|----2-----------------|----2-----------|


 (Lee, alone, makes a question/answer here)
|---------------------|----------------|
|---------------------|----------------|
|---------------------|----------------|
|---------------------|----------------|
|-1-0-1--1-0-1--1-0-1-|--1-0-1--0-1-2--|
|---------------------|----------------|

 Poisoned perfume...
|-----------------|----------------|----------------------|-----------------|
|-----------------|----------------|----------------------|-----------------|
|-----------------|----------------|----------------------|-----------------|
|-----------------|----------------|----------------------|-----------------|
|-3-----0---2-0-2-|-3-----0--2p0-2-|-0-----1S3---2S3S2----|-0-----1S3---2/--|
|----2------------|----2-----------|----2-----------------|----2------------|


 (Lee, alone, makes a question/answer here)
|---------------------|----------------|
|---------------------|----------------|
|---------------------|----------------|
|---------------------|----------------|
|-1-0-1--1-0-1--1-0-1-|--1-0-1--0-1-2--|
|---------------------|----------------|


 (solo begins here)
   2/4      4/4          2/4       4/4
                        Play 2x            Play 2x
||--------|------------|-------| |-------------|
||o-------|------------|------o| |-------------|
||--------|------------|-------| |-------------|
||--------|------------|-------| |-------------|
||o----1--|----------1-|------o| |-4-----3-----|
||--3-----|-1--4--3----|-4--1--| |----5-----4--|

                                     (solo ends here)
   2/4      4/4          2/4      4/4
                        Play 2x           Play 2x
||--------|------------|-------||-------------|
||o-------|------------|------o||-------------|
||--------|------------|-------||-------------|
||-----3--|----------3-|-------||-6------5----|
||o-5--1--|-3--6--5--1-|-6--3-o||-4--7---3-6--|
||--3-----|-1--4--3----|-4--1--||----5-----4--|



 Gtr.I
|-------------|-----------------|-------------|------------------|
|-------------|-----------------|-------------|------------------|
|-------------|-------------6-9-|-------------|-------------7-10-|
|-------------|---------5-8-----|-------------|---------6-9------|
|-------4--7--|-----4-7---------|-------5--8--|-----5-8----------|
|-3--6--------|-3-6-------------|-4--7--------|-4-7--------------|
|
|Gtr.II
|-------------|-----------------|-------------|------------------|
|-------------|-------------6-9-|-------------|-------------7-10-|
|-------------|---------4-7-----|-------------|---------5-8------|
|-------3--6--|-----3-6---------|-------4--7--|-----4-7----------|
|-2--5--------|-2-5-------------|-3--6--------|-3-6--------------|
|-------------|-----------------|-------------|------------------|

 Gtr.I
|--------------|------------|
|-9--7---5--3--|--2---------|
|-9--7---6--4--|--2---------|
|--------------|------------|
|--------------|------------|
|--------------|------------|
|
| (an 8va higher)
|Gtr.II
|-9--7---------|------------|
|-------10-----|------------|
|-----------7--|-11-9-------|
|--------------|------------|
|--------------|------------|
|--------------|------------|


6:58
(Lee speaks throughout these arpeggios)
                              Play 4x
|-----------------|-----0---0-----|
|-----5---5---5---|---4---4---4---|
|---6---6---6---6-|---------------|
|-4---------------|-5-----------5-|
|-----------------|---------------|
|-----------------|---------------|

 In us...                                                    Play 2x
|---------0---0---|-4---4---0-----|---------0---0---|-3---3---0-----|
|-----2-----2---2-|---2---2---2---|-----1-----1---1-|---1---1---1---|
|---3---3---------|-------------3-|---2---2---------|-------------2-|
|-4---------------|---------------|-3---------------|---------------|
|-----------------|---------------|-----------------|---------------|
|-----------------|---------------|-----------------|---------------|

(Lee speaks throughout these arpeggios)
                              Play 4x
|-----------------|-----0---0-----|
|-----5---5---5---|---4---4---4---|
|---6---6---6---6-|---------------|
|-4---------------|-5-----------5-|
|-----------------|---------------|
|-----------------|---------------|

 In this...                                                  Play 2x
|---------0---0---|-4---4---0-----|---------0---0---|-3---3---0-----||----2----|
|-----2-----2---2-|---2---2---2---|-----1-----1---1-|---1---1---1---||----2----|
|---3---3---------|-------------3-|---2---2---------|-------------2-||----3----|
|-4---------------|---------------|-3---------------|---------------||----4----|
|-----------------|---------------|-----------------|---------------||---------|
|-----------------|---------------|-----------------|---------------||---------|


 Feedback
 8:23
 Gtr.I
       Play 3x
|-------------||------------|
|-------------||------------|
|-------------||------------|
|-------------||------------|
|-8--8--8--8--||-6--7--6----|
|-6--6--6--6--||-4--5--4----|

       Play 3x
|-------------||-----------|
|-------------||-----------|
|-------------||-----------|
|-------------||-----------|
|-8--8--8--8--||-8----8----|
|-6--6--6--6--||-7----7----|

 Gtr.II enters
       Play 3x
|-------------||------------|
|-------------||------------|
|-------------||------------|
|-------------||------------|
|-8--8--8--8--||-6--7--6----|
|-6--6--6--6--||-4--5--4----|

       Play 3x
|-------------||-----------|
|-------------||-----------|
|-------------||-----------|
|-------------||-----------|
|-8--8--8--8--||-8----8----|
|-6--6--6--6--||-7----7----|

 Witching moon...
       Play 3x
|-------------||------------|
|-------------||------------|
|-------------||------------|
|-------------||------------|
|-8--8--8--8--||-6--7--6----|
|-6--6--6--6--||-4--5--4----|


 Frozen...
       Play 3x
|-------------||-----------|
|-------------||-----------|
|-------------||-----------|
|-------------||-----------|
|-8--8--8--8--||-8----8----|
|-6--6--6--6--||-7----7----|


Earth vampires...
       Play 3x
|-------------||------------|
|-------------||------------|
|-------------||------------|
|-------------||------------|
|-8--8--8--8--||-6--7--6----|
|-6--6--6--6--||-4--5--4----|


 For our...
       Play 3x
|-------------||-----------|
|-------------||-----------|
|-------------||-----------|
|-------------||-----------|
|-8--8--8--8--||-8----8----|
|-6--6--6--6--||-7----7----|


 Flight of the...
       Play 3x
|-------------||-----------|
|-------------||-----------|
|-------------||-----------|
|-6--6--6--6--||-----------|
|-4--4--4--4--||-5----5----|
|-------------||-3----3----|

  Coming to...
       Play 3x
|-------------||-----------|
|-------------||-----------|
|-------------||-----------|
|-6--6--6--6--||-6----6----|
|-4--4--4--4--||-5----5----|
|-------------||-----------|

  Cosmic...
       Play 3x
|-------------||-----------|
|-------------||-----------|
|-------------||-----------|
|-6--6--6--6--||-----------|
|-4--4--4--4--||-5----5----|
|-------------||-3----3----|

  From his...
       Play 3x
|-------------||-----------|
|-------------||-----------|
|-------------||-----------|
|-6--6--6--6--||-6----6----|
|-4--4--4--4--||-5----5----|
|-------------||-----------|

 White...
       Play 3x
|-------------||------------|
|-------------||------------|
|-------------||------------|
|-------------||------------|
|-8--8--8--8--||-6--7--6----|
|-6--6--6--6--||-4--5--4----|


  Loneliness...
       Play 3x
|-------------||-----------|
|-------------||-----------|
|-------------||-----------|
|-------------||-----------|
|-8--8--8--8--||-8----8----|
|-6--6--6--6--||-7----7----|

 Black...
       Play 3x
|-------------||------------|
|-------------||------------|
|-------------||------------|
|-------------||------------|
|-8--8--8--8--||-6--7--6----|
|-6--6--6--6--||-4--5--4----|


  As dead man...
       Play 3x
|-------------||-----------|
|-------------||-----------|
|-------------||-----------|
|-------------||-----------|
|-8--8--8--8--||-8----8----|
|-6--6--6--6--||-7----7----|

 Flight of the...
       Play 3x
|-------------||-----------|
|-------------||-----------|
|-------------||-----------|
|-6--6--6--6--||-----------|
|-4--4--4--4--||-5----5----|
|-------------||-3----3----|

  He arrives...
       Play 3x
|-------------||-----------|
|-------------||-----------|
|-------------||-----------|
|-6--6--6--6--||-6----6----|
|-4--4--4--4--||-5----5----|
|-------------||-----------|

 A funeral...
       Play 3x
|-------------||-----------|
|-------------||-----------|
|-------------||-----------|
|-6--6--6--6--||-----------|
|-4--4--4--4--||-5----5----|
|-------------||-3----3----|

  Cursed beyond??...
      Play 3x
|-------------||-----------|
|-------------||-----------|
|-------------||-----------|
|-6--6--6--6--||-6----6----|
|-4--4--4--4--||-5----5----|
|-------------||-----------|

Here the feedback of guitar, meets some synthesized sounds
in a Pink Floyd fashion from Dark Side Of The Moon that goes
from 11:12 - 11:46



11:47
 This sequence can be played by 1 or 2 guitars. When playing alone, try and play
the whole chords and when playing with 2 guitars, one of them can do the higher
intervall with a wah-wah, like Gaz recorded
|-------------|----------|--------------|--------------|-----------|----------|
|-------------|----------|--------------|--------------|-----------|----------|
|-------------|----------|--------------|--------------|-----------|----------|
|-------3--6--|----------|--------3--6--|-6---9--6--5--|-6---------|-5--------|
|-3--6--4--7--|----------|-3--6---4--7--|-7--10--7--6--|-7---------|-6--------|
|-4--7--------|----------|-4--7---------|--------------|-----------|----------|

|-------------|----------|--------------|--------------|-----------|----------|
|-------------|----------|--------------|--------------|-----------|----------|
|-------------|----------|--------------|--------------|-----------|----------|
|-------3--6--|----------|--------3--6--|-6---9--6--5--|-6---------|-2--------|
|-3--6--4--7--|----------|-3--6---4--7--|-7--10--7--6--|-7---------|-3--------|
|-4--7--------|----------|-4--7---------|--------------|-----------|----------|

|-------------|----------|--------------|--------------|-----------|----------|
|-------------|----------|--------------|--------------|-----------|----------|
|-------5--8--|----------|-------5--8---|-8--11--8--7--|-8---------|-7--------|
|-5--8--6--9--|----------|-5--8--6--9---|-9--12--9--8--|-9---------|-8--------|
|-6--9--------|----------|-6--9---------|--------------|-----------|----------|
|-------------|----------|--------------|--------------|-----------|----------|

|-------------|----------|--------------|--------------|-----------|----------|
|-------------|----------|--------------|--------------|-----------|----------|
|-------------|----------|--------------|--------------|-----------|----------|
|-------3--6--|----------|--------3--6--|-6---9--6--5--|-6---------|-2--------|
|-3--6--4--7--|----------|-3--6---4--7--|-7--10--7--6--|-7---------|-3--------|
|-4--7--------|----------|-4--7---------|--------------|-----------|----------|

|-------------|-----------|----------|----------|-------------|
|-------------|-----------|----------|----------|-------------|
|-------------|-----------|----------|----------|-------------|
|-11-------9--|--9-----7--|-7-----5--|-5-----3--|-2-----------|
|-12--10--10--|-10--8--8--|-8--6--6--|-6--4--4--|-3-----------|
|-----11------|-----9-----|----7-----|----5-----|-------------|


12:47
Synthesiszers
   This is very softly picked
|-|---------------------------------|----|
|-|---------------------------------|----|
|-|-7-7-7-7-7-7-7-7-7-7-7-7-7-7-7-7-|----|
|-|---------------------------------|----|
|-|---------------------------------|----|
|-|---------------------------------|----|




12:53 (Rime Of The Ancient Mariner like arpeggios)
 3/4
 Clean Gtr.I
|-------|-------|-------|-------|-------|-------|-------|-------|
|-------|-------|-------|-------|-------|-------|-------|-------|
|-2-----|-------|-2-----|-------|-2-----|-------|-2-----|-------|
|---3---|-----3-|---3---|-----3-|---3---|-----3-|---3---|-----3-|
|-----4-|---4---|-----4-|---4---|-----4-|---4---|-----4-|---4---|
|-------|-5-----|-------|-5-----|-------|-5-----|-------|-5-----|
|
|Clean Gtr.II
|-------|-------|-------|-------|-------|-------|-------|-------|
|-------|-------|-------|-------|-------|-------|-------|-------|
|-------|-5-----|-------|-5-----|-------|-5-----|-------|-5-----|
|-----4-|---4---|-----4-|---4---|-----4-|---4---|-----4-|---4---|
|---3---|-----3-|---3---|-----3-|---3---|-----3-|---3---|-----3-|
|-2-----|-------|-2-----|-------|-2-----|-------|-2-----|-------|

 Clean Gtr.I
|-------|-------|-------|-------|-------|-------|-------|-------|
|-------|-------|-------|-------|-------|-------|-------|-------|
|-5-----|-------|-5-----|-------|-5-----|-------|-5-----|-------|
|---6---|-----6-|---6---|-----6-|---6---|-----6-|---6---|-----6-|
|-----7-|---7---|-----7-|---7---|-----7-|---7---|-----7-|---7---|
|-------|-8-----|-------|-8-----|-------|-8-----|-------|-8-----|
|
|Clean Gtr.II
|-------|-------|-------|-------|-------|-------|-------|-------|
|-------|-------|-------|-------|-------|-------|-------|-------|
|-------|-8-----|-------|-8-----|-------|-8-----|-------|-8-----|
|-----7-|---7---|-----7-|---7---|-----7-|---7---|-----7-|---7---|
|---6---|-----6-|---6---|-----6-|---6---|-----6-|---6---|-----6-|
|-5-----|-------|-5-----|-------|-5-----|-------|-5-----|-------|

Clean Gtr.I
|-------|-------|-------|-------|-------|-------|-------|-------|
|-------|-------|-------|-------|-------|-------|-------|-------|
|-2-----|-------|-2-----|-------|-2-----|-------|-2-----|-------|
|---3---|-----3-|---3---|-----3-|---3---|-----3-|---3---|-----3-|
|-----4-|---4---|-----4-|---4---|-----4-|---4---|-----4-|---4---|
|-------|-5-----|-------|-5-----|-------|-5-----|-------|-5-----|
|
|Clean Gtr.II
|-------|-------|-------|-------|-------|-------|-------|-------|
|-------|-------|-------|-------|-------|-------|-------|-------|
|-------|-5-----|-------|-5-----|-------|-5-----|-------|-5-----|
|-----4-|---4---|-----4-|---4---|-----4-|---4---|-----4-|---4---|
|---3---|-----3-|---3---|-----3-|---3---|-----3-|---3---|-----3-|
|-2-----|-------|-2-----|-------|-2-----|-------|-2-----|-------|

Clean Gtr.I
|-------|-------|-------|-------|-------|-------|-------|-------|
|-------|-------|-------|-------|-------|-------|-------|-------|
|-5-----|-------|-5-----|-------|-5-----|-------|-5-----|-------|
|---6---|-----6-|---6---|-----6-|---6---|-----6-|---6---|-----6-|
|-----7-|---7---|-----7-|---7---|-----7-|---7---|-----7-|---7---|
|-------|-8-----|-------|-8-----|-------|-8-----|-------|-8-----|
|
|Clean Gtr.II
|-------|-------|-------|-------|-------|-------|-------|-------|
|-------|-------|-------|-------|-------|-------|-------|-------|
|-------|-8-----|-------|-8-----|-------|-8-----|-------|-8-----|
|-----7-|---7---|-----7-|---7---|-----7-|---7---|-----7-|---7---|
|---6---|-----6-|---6---|-----6-|---6---|-----6-|---6---|-----6-|
|-5-----|-------|-5-----|-------|-5-----|-------|-5-----|-------|

 Clean Gtr.
|-------|--------|-------|--------|-------|-------|-------|-------|
|-------|--------|-------|--------|-------|-------|-------|-------|
|-7-----|--------|-7-----|--------|-6-----|-------|-6-----|-------|
|---8---|------8-|---8---|------8-|---7---|-----7-|---7---|-----7-|
|-----9-|----9---|-----9-|----9---|-----8-|---8---|-----8-|---8---|
|-------|-10-----|-------|-10-----|-------|-9-----|-------|-9-----|
|
|Clean Gtr.II
|-------|--------|-------|--------|-------|-------|-------|-------|
|-------|--------|-------|--------|-------|-------|-------|-------|
|-------|-10-----|-------|-10-----|-------|-9-----|-------|-9-----|
|-----9-|----9---|-----9-|----9---|-----8-|---8---|-----8-|---8---|
|---8---|------8-|---8---|------8-|---7---|-----7-|---7---|-----7-|
|-7-----|--------|-7-----|--------|-6-----|-------|-6-----|-------|

Clean Gtr
|-------|-------|-------|-------|-------|-------|-------|-------|
|-------|-------|-------|-------|-------|-------|-------|-------|
|-2-----|-------|-2-----|-------|-2-----|-------|-2-----|-------|
|---3---|-----3-|---3---|-----3-|---3---|-----3-|---3---|-----3-|
|-----4-|---4---|-----4-|---4---|-----4-|---4---|-----4-|---4---|
|-------|-5-----|-------|-5-----|-------|-5-----|-------|-5-----|
|
|Clean Gtr.II
|-------|-------|-------|-------|-------|-------|-------|-------|
|-------|-------|-------|-------|-------|-------|-------|-------|
|-------|-5-----|-------|-5-----|-------|-5-----|-------|-5-----|
|-----4-|---4---|-----4-|---4---|-----4-|---4---|-----4-|---4---|
|---3---|-----3-|---3---|-----3-|---3---|-----3-|---3---|-----3-|
|-2-----|-------|-2-----|-------|-2-----|-------|-2-----|-------|

Clean Gtr.I
|-------|-------|-------|-------|-------|-------|-------|-------||-------|
|-------|-------|-------|-------|-------|-------|-------|-------||-------|
|-2-----|-------|-2-----|-------|-2-----|-------|-2-----|-------||-2-----|
|---3---|-----3-|---3---|-----3-|---3---|-----3-|---3---|-----3-||-------|
|-----4-|---4---|-----4-|---4---|-----4-|---4---|-----4-|---4---||-------|
|-------|-5-----|-------|-5-----|-------|-5-----|-------|-5-----||-------|
|
|Clean Gtr.II
|-------|-------|-------|-------|-------|-------|-------|-------||-------|
|-------|-------|-------|-------|-------|-------|-------|-------||-------|
|-------|-5-----|-------|-5-----|-------|-5-----|-------|-5-----||-------|
|-----4-|---4---|-----4-|---4---|-----4-|---4---|-----4-|---4---||-------|
|---3---|-----3-|---3---|-----3-|---3---|-----3-|---3---|-----3-||-------|
|-2-----|-------|-2-----|-------|-2-----|-------|-2-----|-------||-2-----|



13:57

 2/4
 Gtr.I                                           Play 8x
|-------------|-------------|-------------|-------------|
|-------------|-------------|-------------|-------------|
|-------------|-------------|-------------|-------------|
|-------------|-------------|-------------|-------------|
|-9p6-------6-|-9p6-------6-|-9p6-------6-|-9p6-------6-|
|-----8-6-8---|-----8-6-8---|-----8-6-8---|-----8-6-8---|


 Gtr.I
|-------------|-------------|-------------|-------------|
|-------------|-------------|-------------|-------------|
|-------------|-------------|-------------|-------------|
|-------------|-------------|-------------|-------------|
|-9p6-------6-|-9p6-------6-|-9p6-------6-|-9p6-------6-|
|-----8-6-8---|-----8-6-8---|-----8-6-8---|-----8-6-8---|
|
|Bass chords arranged for guitar
|-------------|-------------|-------------|-------------|
|-------------|-------------|-------------|-------------|
|-------------|-------------|-------------|-------------|
|-------------|-------------|-------------|-------------|
|-5-----------|-------------|-------------|-------------|
|-3-----------|-------------|-------------|-------------|

 Gtr.I
|-------------|-------------|-------------|-------------|
|-------------|-------------|-------------|-------------|
|-------------|-------------|-------------|-------------|
|-------------|-------------|-------------|-------------|
|-9p6-------6-|-9p6-------6-|-9p6-------6-|-9p6-------6-|
|-----8-6-8---|-----8-6-8---|-----8-6-8---|-----8-6-8---|
|
|Bass chords arranged for guitar
|-------------|-------------|-------------|-------------|
|-------------|-------------|-------------|-------------|
|-------------|-------------|-------------|-------------|
|-8-----------|-------------|-------------|-------------|
|-6-----------|-------------|-------------|-------------|
|-6-----------|-------------|-------------|-------------|

 Gtr.I
|-------------|-------------|-------------|-------------|
|-------------|-------------|-------------|-------------|
|-------------|-------------|-------------|-------------|
|-------------|-------------|-------------|-------------|
|-9p6-------6-|-9p6-------6-|-9p6-------6-|-9p6-------6-|
|-----8-6-8---|-----8-6-8---|-----8-6-8---|-----8-6-8---|
|
|Bass chords arranged for guitar
|-------------|-------------|-------------|-------------|
|-------------|-------------|-------------|-------------|
|-------------|-------------|-------------|-------------|
|-4-----------|-------------|-------------|-------------|
|-4-----------|-------------|-------------|-------------|
|-2-----------|-------------|-------------|-------------|

 Gtr.I
|-------------|-------------|-------------|-------------|
|-------------|-------------|-------------|-------------|
|-------------|-------------|-------------|-------------|
|-------------|-------------|-------------|-------------|
|-9p6-------6-|-9p6-------6-|-9p6-------6-|-9p6-------6-|
|-----8-6-8---|-----8-6-8---|-----8-6-8---|-----8-6-8---|
|
|Bass chords arranged for guitar
|-------------|-------------|-------------|-------------|
|-------------|-------------|-------------|-------------|
|-------------|-------------|-------------|-------------|
|-5-----------|-------------|-------------|-------------|
|-3-----------|-------------|-------------|-------------|
|-3-----------|-------------|-------------|-------------|

 Gtr.I
|-------------|-------------|-------------|-------------|
|-------------|-------------|-------------|-------------|
|-------------|-------------|-------------|-------------|
|-------------|-------------|-------------|-------------|
|-9p6-------6-|-9p6-------6-|-9p6-------6-|-9p6-------6-|
|-----8-6-8---|-----8-6-8---|-----8-6-8---|-----8-6-8---|
|
|Gtr.II (make some scratching with the plectrum edge on the
|lower part of the guitar, near the bridge)
|-------------|-------------|-------------|-------------|
|-------------|-------------|-------------|-------------|
|-------------|-------------|-------------|-------------|
|-------------|-------------|-------------|-------------|
|-------------|-------------|-------------|-------------|
|-------------|-------------|-------------|-------------|

 Gtr.I
|-------------|-------------|-------------|-------------|
|-------------|-------------|-------------|-------------|
|-------------|-------------|-------------|-------------|
|-------------|-------------|-------------|-------------|
|-9p6-------6-|-9p6-------6-|-9p6-------6-|-9p6-------6-|
|-----8-6-8---|-----8-6-8---|-----8-6-8---|-----8-6-8---|
|
|Bass chords arranged for guitar
|-------------|-------------|-------------|-------------|
|-------------|-------------|-------------|-------------|
|-------------|-------------|-------------|-------------|
|-6-----------|-------------|-6-----------|-------------|
|-6-----------|-------------|-------------|-------------|
|-4-----------|-------------|-4-----------|-------------|

 Gtr.I
|-------------|-------------|-------------|-------------|
|-------------|-------------|-------------|-------------|
|-------------|-------------|-------------|-------------|
|-------------|-------------|-------------|-------------|
|-9p6-------6-|-9p6-------6-|-9p6-------6-|-9p6-------6-|
|-----8-6-8---|-----8-6-8---|-----8-6-8---|-----8-6-8---|
|
|Bass chords arranged for guitar
|-------------|-------------|-------------|-------------|
|-------------|-------------|-------------|-------------|
|-------------|-------------|-------------|-------------|
|-7-----------|-------------|-7-----------|-------------|
|-7-----------|-------------|-------------|-------------|
|-5-----------|-------------|-5-----------|-------------|

 Gtr.I
|-------------|-------------|-------------|-------------|
|-------------|-------------|-------------|-------------|
|-------------|-------------|-------------|-------------|
|-------------|-------------|-------------|-------------|
|-9p6-------6-|-9p6-------6-|-9p6-------6-|-9p6-------6-|
|-----8-6-8---|-----8-6-8---|-----8-6-8---|-----8-6-8---|
|
|Bass chords arranged for guitar
|-------------|-------------|-------------|-------------|
|-------------|-------------|-------------|-------------|
|-------------|-------------|-8-----------|-------------|
|-8-----------|-------------|-------------|-------------|
|-6-----------|-------------|-6-----------|-------------|
|-6-----------|-------------|-------------|-------------|

 Gtr.I
|-------------|-------------|-------------|-------------|
|-------------|-------------|-------------|-------------|
|-------------|-------------|-------------|-------------|
|-------------|-------------|-------------|-------------|
|-9p6-------6-|-9p6-------6-|-9p6-------6-|-9p6-------6-|
|-----8-6-8---|-----8-6-8---|-----8-6-8---|-----8-6-8---|
|
|Bass chords arranged for guitar
|-------------|-------------|-------------|-------------|
|-------------|-------------|-------------|-------------|
|-------------|-------------|-5-----------|-------------|
|-5-----------|-------------|-------------|-------------|
|-3-----------|-------------|-3-----------|-------------|
|-3-----------|-------------|-------------|-------------|

Gtr.I
|-------------|-------------|-------------|-------------|
|-------------|-------------|-------------|-------------|
|-------------|-------------|-------------|-------------|
|-------------|-------------|-------------|-------------|
|-9p6-------6-|-9p6-------6-|-9p6-------6-|-9p6-------6-|
|-----8-6-8---|-----8-6-8---|-----8-6-8---|-----8-6-8---|
|
|Gtr.II (keeps making the scratch with plactrum edge)
|Gtr.III
|-------------|-------------|-------------|-------------|
|-------------|-------------|-------------|-------------|
|-------------|-------------|-------------|-------------|
|-------------|-------------|-------------|-------------|
|-7===========|r6-----------|-6-----------|6b---7-------|
|-------------|-------------|-------------|-------------|

 Gtr.I
|-------------|-------------|-------------|-------------|
|-------------|-------------|-------------|-------------|
|-------------|-------------|-------------|-------------|
|-------------|-------------|-------------|-------------|
|-9p6-------6-|-9p6-------6-|-9p6-------6-|-9p6-------6-|
|-----8-6-8---|-----8-6-8---|-----8-6-8---|-----8-6-8---|
|
|
|Gtr.II (keeps making the scratch with plectrum edge)
|Gtr.III
|-------------|-------------|-------------|-------------|
|-------------|-------------|-------------|-------------|
|-------------|-------------|-------------|-------------|
|-------------|-------------|-------------|-------------|
|-(7)---------|-(7)r6-------|-(7)---------|-(7)/--------|
|-------------|-------------|-------------|-------------|

(Bass) Play 2x
|-------------|
|-------------|
|-------------|
|-------------|
|-9p6-------6-|
|-----8-6-8---|


 (Lee speaks a serie of words
 during these measures)
 Gtr.I   Play 16x
|--------------|
|--------------|
|--------------|
|--------------|
|-9p6----------|
|--------------|
|
|Gtr.II
|--------------|
|--------------|
|--------------|
|--------------|
|------------6-|
|------8-6-8---|

|--------|
|--------|
|--------|
|--------|
|-7-----|
|-5-----|

Drum break


                    Play 2x
|-------------|-------------|
|-------------|-------------|
|---------5---|-------------|
|-5h7-7-7---7-|---------5---|
|-------------|-5h7-7-7---7-|
|-------------|-------------|

                 Bass                 Bass
|-------------|-------|-------------|------|-----------------|
|-------------|-------|-------------|------|-----------------|
|---------5---|-------|---------7---|------|------------9----|
|-5h7-7-7---7-|-------|-7h9-9-9---9-|------|-9h11-11-11---11-|
|-------------|-------|-------------|------|-----------------|
|-------------|-------|-------------|------|-----------------|

  Bass
|-------|--------------------|
|-------|--------------------|
|-------|-------------11-----|
|-------|-11h13-13-13----13--|
|-------|--------------------|
|-------|--------------------|

|-------------|-----------------|-------------------|-------------------|
|-------------|-----------------|-------------------|-------------------|
|---------5---|------------8----|-------------11----|-------------13----|
|-5h7-7-7---7-|-8h10-10-10---10-|-11h13-13-13----13-|-13h15-15-15----15-|
|-------------|-----------------|-------------------|-------------------|
|-------------|-----------------|-------------------|-------------------|

 (People seems to be having a party in this part, 'cos there are
loads of screams and happy chantings in the background)
 (funky/samba riff)                                  Play 4x
|--------------------------|--------------------------------|
|--------------------------|-----------7--------------------|
|--6-x-x--7-----9--9--x--7-|-x-x-6-x-x-7-x--6--6/-----------|
|--7-x-x--9----11-11--x--9-|-x-x-7-x-x---x--7--7/-------7h9-|
|--------------------------|-----------------------7h9------|
|--------------------------|--------------------------------|


 Gtr.I                                               Play 3x
|--------------------------|--------------------------------|
|--------------------------|-----------7--------------------|
|--6-x-x--7-----9--9--x--7-|-x-x-6-x-x-7-x--6--6/-----------|
|--7-x-x--9----11-11--x--9-|-x-x-7-x-x---x--7--7/-------7h9-|
|--------------------------|-----------------------7h9------|
|--------------------------|--------------------------------|
|
|Gtr.II
|-17-x-x-17-17-17-17-17-17-|-17-x-x-17-17-x-17-17-17-17-17-17|
|--------------------------|---------------------------------|
|-14-x-x-14-14-14-14-14-14-|-14-x-x-14-14-x-14-14-14-14-14-14|
|--------------------------|---------------------------------|
|--------------------------|---------------------------------|
|--------------------------|---------------------------------|

Gtr.I
|--------------------------|------------------------------|
|--------------------------|-----------7------------------|
|--6-x-x--7-----9--9--x--7-|-x-x-6-x-x-7-x--6--6/---------|
|--7-x-x--9----11-11--x--9-|-x-x-7-x-x---x--7--7/-------7-|
|--------------------------|-----------------------7h9----|
|--------------------------|------------------------------|
|
|Gtr.II
|-17-x-x-17-17-17-17-17-17-|-17-x-x-17-17-x-17-17-17-17-17|
|--------------------------|------------------------------|
|-14-x-x-14-14-14-14-14-14-|-14-x-x-14-14-x-14-14-14-14-14|
|--------------------------|------------------------------|
|--------------------------|------------------------------|
|--------------------------|------------------------------|

 2/4
 Gtr.I                                        Uey!
|-------------|-------------|-------------|--------------|-------------|
|-------------|-------------|-------------|--------------|-------------|
|-------------|-------------|-------------|--------------|-------------|
|-------------|-------------|-------------|--------------|-------------|
|-9p6-------6-|-9p6-------6-|-9p6-------6-|--------------|-9p6-------6-|
|-----8-6-8---|-----8-6-8---|-----8-6-8---|--------------|-----8-6-8---|






16:37

                 ~~~~~~~~~          ~
|------|-------|------|-----|-----|-----|-----|---------|
|------|-------|------|-----|-----|-----|-----|---------|
|------|-------|------|-----|-----|-----|-----|---------|
|------|-------|------|-----|-----|-----|-----|---------|
|------|-2-----|------|-2---|-----|-1---|-----|-1b-r-1--|
|-4----|-------|-2----|-----|-3---|-----|-0---|---------|

 Lee whispers some words
|-----------|-------------|
|-----------|-------------|
|-----------|-------------|
|-4S5-5-4-4-|-5-5-4-4S5-5-|
|-5S6-6-5-5-|-6-6-5-5S6-6-|
|-----------|-------------|

         ~~~~~~~~~          ~
|------|-------|------|-----|-----|-----|-----|---------|
|------|-------|------|-----|-----|-----|-----|---------|
|------|-------|------|-----|-----|-----|-----|---------|
|------|-------|------|-----|-----|-----|-----|---------|
|------|-2-----|------|-2---|-----|-1---|-----|-1b-r-1--|
|-4----|-------|-2----|-----|-3---|-----|-0---|---------|

 Lee whispers some words
|-----------|-------------|
|-----------|-------------|
|-----------|-------------|
|-4S5-5-4-4-|-5-5-4-4S5-5-|
|-5S6-6-5-5-|-6-6-5-5S6-6-|
|-----------|-------------|



 2.In the concrets...                 Play 2x
|-------|------------|---------|--------------|
|-0-----|-6/---------|-3/------|-1------------|
|-------|------------|---------|--------------|
|-------|------------|---------|--------------|
|-------|------------|---------|--------------|
|-------|------------|---------|--------------|

 2.Our sins...                        Play 2x
|-------|------------|---------|--------------|
|-0-----|-6/---------|-3/------|-1--------3/--|
|-------|------------|---------|----------4/--|
|-------|------------|---------|--------------|
|-------|------------|---------|--------------|
|-------|------------|---------|--------------|

 Gtr.I,II
|-------------|-------------|---------------|--------------|
|-------------|-------------|---------------|--------------|
|-------------|-------------|---------------|--------------|
|-------------|-------------|---------------|--------------|
|------1-1-2--|------1-1-2--|------1---1-2--|------1---1-2-|
|-3--3--------|-3--3--------|-3--3---3------|-3--3---3-----|

 P.M.-----------------------
 Gtr.I                       Gtr.II enters
|-------------|-------------|---------------|--------------|
|-------------|-------------|---------------|--------------|
|-------------|-------------|---------------|--------------|
|-------------|-------------|---------------|--------------|
|------1-1-2--|------1-1-2--|------1---1-2--|------1---1-2-|
|-3--3--------|-3--3--------|-3--3---3------|-3--3---3-----|

|---------------------|
|---------------------|
|---------------------|
|---------------------|
|-2-2-2-2-2-2-2-2-2-2-|
|---------------------|



 1.Burning... Play 4x       1.For your...            Play 2x
|----------------|      |---------------|--------------|
|----------------|      |---------------|--------------|
|----------------|      |---------------|--------------|
|----------------|      |---------------|--------------|
|------------5---|      |---------------|--------------|
|-3-0-2--5h7---6-|      |-4--0-3-5b6r5--|-5--0-3-6b7-6-|

 1.Break... Play 4x         1.Celebrating...         Play 2x
|----------------|      |---------------|--------------|
|----------------|      |---------------|--------------|
|----------------|      |---------------|--------------|
|----------------|      |---------------|--------------|
|------------5---|      |---------------|--------------|
|-3-0-2--5h7---6-|      |-4--0-3-5b6r5--|-5--0-3-6b7-6-|



                           Play 4x   Rhythm for bagpipe solo      Play 2x
|-----------------|---------------| |-------------------|-----------------|
|-----------------|---------------| |-------------------|-----------------|
|-----------------|-----------4---| |-------------------|-----------------|
|-6-6-x-x-6-6-x-x-|-6-6-x-x-4-2-4-| |-9-9-x-x-9-9-------|-----x-x-7-7-x-x-|
|-4-4-x-x-4-4-x-x-|-4-4-x-x-2---2-| |-7-7-x-x-7-7-7p5---|-7-7-x-x-5-5-x-x-|
|-----------------|---------------| |-----------------7-|-5-5-x-x---------|

ending of 2nd time
|---------------|
|---------------|
|---------------|
|---------7-7-7-|
|-7-7-x-x-5-5-5-|
|-5-5-x-x-------|

Rhythm for guitar solo    Play 4x    Rhythm for bagpipe solo      Play 2x
|-----------------|---------------| |-------------------|-----------------|
|-----------------|---------------| |-------------------|-----------------|
|-----------------|-----------4---| |-------------------|-----------------|
|-6-6-x-x-6-6-x-x-|-6-6-x-x-4-2-4-| |-9-9-x-x-9-9-------|-----x-x-7-7-x-x-|
|-4-4-x-x-4-4-x-x-|-4-4-x-x-2---2-| |-7-7-x-x-7-7-7p5---|-7-7-x-x-5-5-x-x-|
|-----------------|---------------| |-----------------7-|-5-5-x-x---------|

ending of 2nd time
|---------------|
|---------------|
|---------------|
|---------7-7-7-|
|-7-7-x-x-5-5-5-|
|-5-5-x-x-------|



20:33
                                     Play 4x
|-----------------------|--------------------|
|-----------------------|--------------------|
|-----------------------|--------------------|
|-----------------------|--------------------|
|-----------------------|------------------1-|
|-2--2-5-2-0-2--2-5-2-0-|-2--2-5-2-0-5-2-0---|



 1.Fiery sun...                       Play 4x
  PM---------------------------------------|
|-----------------------|--------------------|
|-----------------------|--------------------|
|-----------------------|--------------------|
|-----------------------|--------------------|
|-----------------------|------------------1-|
|-2--2-5-2-0-2--2-5-2-0-|-2--2-5-2-0-5-2-0---|



|-----------|------------|------------|--------------|
|-----------|------------|------------|--------------|
|-----------|------------|------------|--------------|
|-7----7s10-|-9----------|-7-----7s10-|-9------8-8-8-|
|-5----5s-8-|-7----8-8-8-|-5-----5s-8-|-7------6-6-6-|
|-----------|------6-6-6-|------------|--------------|

|-----------|------------|------------|----------|
|-----------|------------|------------|----------|
|-----------|------------|------------|----------|
|-7----7s10-|-9----------|-7-----7s10-|-9------5-|
|-5----5s-8-|-7----8-8-8-|-5-----5s-8-|-7------3-|
|-----------|------6-6-6-|------------|----------|


              We have chosen...
|-------------------|---------|-----------------|--------------|
|-------------------|---------|-----------------|--------------|
|-------------------|---------|-----------------|--------------|
|---------7------10-|-9-------|--------7-----10-|-9------8-8-8-|
|-5----5--5-------8-|-7----8--|-5---5--5------8-|-7------6-6-6-|
|---5---------------|------6--|---5-------------|--------------|

              Is just??...                                    Gtr.II
|-------------------|---------|-----------------|------------|-14/-------|
|-------------------|---------|-----------------|------------|-----------|
|-------------------|---------|-----------------|------------|-----------|
|---------7------10-|-9-------|--------7-----10-|-9-------5--|-----------|
|-5----5--5-------8-|-7----8--|-5---5--5------8-|-7-------3--|-4---------|
|---5---------------|------6--|---5-------------|------------|-2---------|



 21:35
 Gtr.I (overdrive soft)
  I know that you have drunk...
|-----------|---------|------------|------------|
|-----------|---------|------------|------------|
|-----------|---------|------------|------------|
|-6------9--|-6--9--6-|--9-----12--|--9--12---9-|
|-7------7--|-7--7--7-|-10-----10--|-10--10--10-|
|-----------|---------|------------|------------|

  Do it if it would not...
|-----------|---------|------------|------------|
|-----------|---------|------------|------------|
|-----------|---------|------------|------------|
|-6------9--|-6--9--6-|--9-----12--|--9--12---9-|
|-7------7--|-7--7--7-|-10-----10--|-10--10--10-|
|-----------|---------|------------|------------|

|----------|----------|----------|----------|
|----------|----------|----------|----------|
|----------|----------|----------|----------|
|-8-----11-|-8--11--8-|-7-----10-|-7-10--7--|
|-9-----9--|-9---9--9-|-8------8-|-8--8--8--|
|----------|----------|----------|----------|

 Gtr.I,II (overdirve soft)
  And you...
|-----------|---------|------------|------------|
|-----------|---------|------------|------------|
|-----------|---------|------------|------------|
|-6------9--|-6--9--6-|--9-----12--|--9--12---9-|
|-7------7--|-7--7--7-|-10-----10--|-10--10--10-|
|-----------|---------|------------|------------|

 Gtr.I,II
  (girl keeps speaking)
|-----------|---------|------------|------------|
|-----------|---------|------------|------------|
|-----------|---------|------------|------------|
|-6------9--|-6--9--6-|--9-----12--|--9--12---9-|
|-7------7--|-7--7--7-|-10-----10--|-10--10--10-|
|-----------|---------|------------|------------|

|----------|----------|----------|----------|
|----------|----------|----------|----------|
|----------|----------|----------|----------|
|-8-----11-|-8--11--8-|-7-----10-|-7-10--7--|
|-9-----9--|-9---9--9-|-8------8-|-8--8--8--|
|----------|----------|----------|----------|

 Gtr.I,II (heavily distorted)
|------------|-----------|--------------|---------|
|------------|-----------|--------------|---------|
|------------|-----------|--------------|----7----|
|-6-------9--|-----9-----|--9-------12--|-9-----9-|
|-7-------7--|-11-----11-|-10-------10--|---------|
|-0-------0--|-----------|--------------|---------|


|-----------|-----------|-------------|---------|
|-----------|-----------|-------------|---------|
|-----------|-----------|-------------|----7----|
|-6------9--|-----9-----|--9------12--|-9-----9-|
|-7------7--|-11-----11-|-10------10--|---------|
|-0------0--|-----------|-------------|---------|

|-----------|----------|------------|----------|
|-----------|----------|------------|----------|
|-----------|----6-----|------------|----5-----|
|-8------11-|-8-----8--|-7-------10-|-7-----7--|
|-9-------9-|----------|-8--------8-|----------|
|-----------|----------|------------|----------|





 Gtr.I,II
|------------|-----------|--------------|---------|
|------------|-----------|--------------|---------|
|------------|-----------|--------------|----7----|
|-6-------9--|-----9-----|--9-------12--|-9-----9-|
|-7-------7--|-11-----11-|-10-------10--|---------|
|-0-------0--|-----------|--------------|---------|


|-----------|-----------|-------------|---------|
|-----------|-----------|-------------|---------|
|-----------|-----------|-------------|----7----|
|-6------9--|-----9-----|--9------12--|-9-----9-|
|-7------7--|-11-----11-|-10------10--|---------|
|-0------0--|-----------|-------------|---------|

|-----------|----------|------------|----------|
|-----------|----------|------------|----------|
|-----------|----6-----|------------|----5-----|
|-8------11-|-8-----8--|-7-------10-|-7-----7--|
|-9-------9-|----------|-8--------8-|----------|
|-----------|----------|------------|----------|



 Gtr.I,II
|------------|-----------|--------------|---------|
|------------|-----------|--------------|---------|
|------------|-----------|--------------|----7----|
|-6-------9--|-----9-----|--9-------12--|-9-----9-|
|-7-------7--|-11-----11-|-10-------10--|---------|
|-0-------0--|-----------|--------------|---------|


|-----------|-----------|-------------|---------|
|-----------|-----------|-------------|---------|
|-----------|-----------|-------------|----7----|
|-6------9--|-----9-----|--9------12--|-9-----9-|
|-7------7--|-11-----11-|-10------10--|---------|
|-0------0--|-----------|-------------|---------|

|-----------|----------|------------|----------|
|-----------|----------|------------|----------|
|-----------|----6-----|------------|----5-----|
|-8------11-|-8-----8--|-7-------10-|-7-----7--|
|-9-------9-|----------|-8--------8-|----------|
|-----------|----------|------------|----------|



 This riff ends in a fade out and a crossfade happens as the intro arpeggios
come back fadingin. During its execution, there are loads of screams, chats
in the back of the track. It ends at 25:36



25:37

3/4
  Acoustic Gtr.I                                    Play 4x
||--------0-----|-------0-----|-------0-----|-------0------|
||o-----7-------|-----7-------|-----6-------|-----7-------o|
||----6---------|---7---------|---5---------|---7----------|
||--4-----------|-0-----------|-3-----------|-0------------|
||o-------------|-------------|-------------|-------------o|
||--------------|-------------|-------------|--------------|
|
| Acoustic Gtr.II
||------7-5-7---|-----7-5-7---|-----6-5-6---|-----6-5-6----|
||o---7-------7-|---7-------7-|---6-------6-|---6-------6-o|
||--6-----------|-6-----------|-5-----------|-5------------|
||--------------|-------------|-------------|--------------|
||o-------------|-------------|-------------|-------------o|
||--------------|-------------|-------------|--------------|

Acoustic Gtr.I
 1.Soldiers now walk...                            Play 4x
||--------0-----|-------0-----|-------0-----|-------0------|
||o-----7-------|-----7-------|-----6-------|-----7-------o|
||----6---------|---7---------|---5---------|---7----------|
||--4-----------|-0-----------|-3-----------|-0------------|
||o-------------|-------------|-------------|-------------o|
||--------------|-------------|-------------|--------------|
|
| Acoustic Gtr.II
||------7-5-7---|-----7-5-7---|-----6-5-6---|-----6-5-6----|
||o---7-------7-|---7-------7-|---6-------6-|---6-------6-o|
||--6-----------|-6-----------|-5-----------|-5------------|
||--------------|-------------|-------------|--------------|
||o-------------|-------------|-------------|-------------o|
||--------------|-------------|-------------|--------------|

Acoustic Gtr.I
  4.
|-------0-----|-------0-------|
|-----6-------|-----8---------|
|---5---------|---7-----------|
|-3-----------|-5-------------|
|-------------|---------------|
|-------------|---------------|
|
| Acoustic Gtr.II
|-----6-5-6---|-----6-5-6----|
|---6-------6-|---6-------6--|
|-5-----------|-5------------|
|-------------|--------------|
|-------------|--------------|
|-------------|--------------|




 Acoustic Gtr.I
|-------0-----|-------0---|-------0----|-------0---|
|-----5-------|-----5-----|-----3------|-----3-----|
|---4---------|---4-------|---2--------|---2-------|
|-2-----------|-2---------|-0----------|-0---------|
|-------------|-----------|------------|-----------|
|-------------|-----------|------------|-----------|
|
|Acoustic Gtr.II
|-------------|-----------|------------|-----------|
|-7h9-----9-7-|---------7-|-8-----8S10S|=7---------|
|-------------|-9-----9---|------------|-----------|
|-------------|-----------|------------|-----------|
|-------------|-----------|------------|-----------|
|-------------|-----------|------------|-----------|
|
|Acoustic Gtr.III
|-----5---5---|-----5---5-|-----3----3-|-----3---3-|
|---5-----5---|---5-----5-|---3------3-|---3-----3-|
|-4-------4---|-4-------4-|-2--------2-|-2-------2-|
|-------------|-----------|------------|-----------|
|-------------|-----------|------------|-----------|
|-------------|-----------|------------|-----------|

 see
 Acoustic Gtr.I
|-------0-----|-------0---|-------0----|-------0---|
|-----5-------|-----5-----|-----3------|-----3-----|
|---4---------|---4-------|---2--------|---2-------|
|-2-----------|-2---------|-0----------|-0---------|
|-------------|-----------|------------|-----------|
|-------------|-----------|------------|-----------|
|
|Acoustic Gtr.II
|-------------|-----------|------------|-----------|
|-7h9-----9-7-|---------7-|-8-----8S10S|=7---------|
|-------------|-9-----9---|------------|-----------|
|-------------|-----------|------------|-----------|
|-------------|-----------|------------|-----------|
|-------------|-----------|------------|-----------|
|
|Acoustic Gtr.III
|-----5---5---|-----5---5-|-----3----3-|-----3---3-|
|---5-----5---|---5-----5-|---3------3-|---3-----3-|
|-4-------4---|-4-------4-|-2--------2-|-2-------2-|
|-------------|-----------|------------|-----------|
|-------------|-----------|------------|-----------|
|-------------|-----------|------------|-----------|

 Acoustic Gtr.I
|---------0--|--------0----|--------0---|--------0---|
|-------5----|-----5-------|------3-----|------3-----|
|-----4------|---4---------|----2-------|----2-------|
|---2--------|-2-----------|--0---------|--0---------|
|------------|-------------|------------|------------|
|------------|-------------|------------|------------|
|
|
|Acoustic Gtr.II
|------------|-------------|------------|------------|
|---9--------|-9-----10S12-|-10---------|-10-9-7-----|
|------------|-------------|------------|------------|
|------------|-------------|------------|------------|
|--
Добавлено: 02.04.2012
Другие материалы по этой песне:
  • Аккорды и текст

Страница создана 02.04.2012
http://primanota.ru/cathedral/garden-chords.htm
Привет, Гость.
Предлагаем пройти революционный курс по гитаре.
Подарок от PrimaNota.Ru, забирай!