PrimaNota.ru - самый крупный в мире бесплатный архив песенных текстов, аккордов, табулатур и нот


Cathedral - Fireball Demon - текст песни, таба, видео

Регистрация Запомнить меня
Войти через:  Facebook Google Twitter Vk Yandex Mail.ru

Cathedral - Fireball Demon - текст песни, таба, видео

Печатать
Просмотров: 109
Уроки эстрадного вокала в Санкт-Петербурге
Artist: Cathedral
Piece: Fireball Demon

                                 FIREBALL DEMON
                            As recorded by Cathedral
                (From the 1996 Album SUPERNATURAL BIRTH MACHINE)

Gtr I (C F Bb Eb G C) - 'Untitled'
Gtr II (C F Bb Eb G C) - 'Untitled'
 4/4
  Gtr I                      Play 2x          1.      2.     Fill 1
|------------|-------------|------------|----------------|---------------|
|------------|-------------|------------|----------------|-7b9r7b9r7b9r7-|
|------------|-------------|------------|----------------|-7b9r7b9r7b9r7-|
|------------|-4--7--9-9-9-|------------|-6--9--11-11-11-|---------------|
|-7--7-7-5-7-|-2--5--7-7-7-|-7--7-7-5-7-|-4--7---9--9--9-|---------------|
|-5--5-5-3-5-|-------------|-5--5-5-3-5-|----------------|---------------|

 1.Fireball Demon...          
 2.Flew after an angel       Play 2x          1.          
|------------|-------------|------------|----------------|
|------------|-------------|------------|----------------|
|------------|-------------|------------|----------------|
|------------|-4--7--9-9-9-|------------|-6--9--11-11-11-|
|-7--7-7-5-7-|-2--5--7-7-7-|-7--7-7-5-7-|-4--7---9--9--9-|
|-5--5-5-3-5-|-------------|-5--5-5-3-5-|----------------|

Save me...                           Fireball demon...
|---------|-------|-----------------|-----------------|----|
|---------|-------|-----------------|-----------------|----|
|---------|-------|-----------------|-----------------|----|
|-10------|-12--9-|-----------------|-----------------|----|
|--8--10--|-10--7-|-----------------|-----------------|----|
|------8--|-------|-3h5-5-5-5-5-5-5-|-5-5-5-5-5-5-5-5-|----|

Curse me...                       Ooh,it's a Fireball demon
|---------|-------|-----------------|-------------|----|
|---------|-------|-----------------|-------------|----|
|---------|-------|-----------------|-------------|----|
|-10------|-12--7-|-----------------|-------------|----|
|--8--10--|-10--5-|-7---------------|-7--5--------|----|
|------8--|-------|-0-0-0-0-0-0-0-0-|-------8--7--|----|

                           Play 2x          1.          2.      
|------------|-------------|------------|----------------|---------------|
|------------|-------------|------------|----------------|---------------|
|------------|-------------|------------|----------------|---------------|
|------------|-4--7--9-9-9-|------------|-6--9--11-11-11-|---------------|
|-7--7-7-5-7-|-2--5--7-7-7-|-7--7-7-5-7-|-4--7---9--9--9-|-7--7-7-5-7--7-|
|-5--5-5-3-5-|-------------|-5--5-5-3-5-|----------------|-5--5-5-3-5--5-|

 1.Meteor assassin...          
 2.I'd relive the...         Play 2x          1.         
|------------|-------------|------------|----------------|
|------------|-------------|------------|----------------|
|------------|-------------|------------|----------------|
|------------|-4--7--9-9-9-|------------|-6--9--11-11-11-|
|-7--7-7-5-7-|-2--5--7-7-7-|-7--7-7-5-7-|-4--7---9--9--9-|
|-5--5-5-3-5-|-------------|-5--5-5-3-5-|----------------|



   Help me   Set me loose           Fireball demon
|----------------|-----------------|--------------------|
|----------------|-----------------|--------------------|
|----------------|-----------------|--------------------|
|-10------12--9--|-----------------|--------------------|
|--8--10--10--7--|-----------------|--------------------|
|------8---------|-3h5-5-5-5-5-5-5-|-5-5-5-5-5-5-5-5----|

   Save me...                         Gotta get away...     Play 8x with Fill 1 on 4th time
|----------------|-------------------|-----------------------------|
|----------------|-------------------|-----------------------------|
|----------------|-------------------|-----------------------------|
|-10------12--7--|-------------------|-2-------2--x-x-x-2----------|
|--8--10--10--5--|-7---------------7-|-0--3b4--0--x-x-x-0-4--4-5---|
|------8---------|-0-0-0-0-0-0-0-0-0-|--------------------2--2S3---|

Babe   untie the noose       Woohuh,fireball Demon
|----------------|-----------------|--------------------|
|----------------|-----------------|--------------------|
|----------------|-----------------|--------------------|
|-10------12--9--|-----------------|--------------------|
|--8--10--10--7--|-----------------|--------------------|
|------8---------|-3h5-5-5-5-5-5-5-|-5-5-5-5-5-5-5-5----|

Save me         I'm breaking loose  Ooh,it's a fireball demon
|----------------|-----------------|------------|------|
|----------------|-----------------|------------|------|
|----------------|-----------------|------------|------|
|-10------12--7--|-----------------|------------|------|
|--8--10--10--5--|-7---------------|-7--5-------|------|
|------8---------|-0-0-0-0-0-0-0-0-|-------8--7-|-5----|


                                                                       ~
|--------------|-------------------|---------|-------5-------5-------5---|----|
|--------------|-------------------|-5---5---|-----5-------5-------5-----|----|
|-7b9==9-9-9r7-|-7b9==9-9-9r7/--22-|-5---5---|-7b9-----7b9-----7b9-----7-|----|
|--------------|-------------------|---7---7-|---------------------------|----|
|--------------|-------------------|---------|---------------------------|----|
|--------------|-------------------|---------|---------------------------|----|

Here the guitar does a lot of licks til the fade out over the riffs below

Freedom paranoia 
|-----------------|----------|-----------------|-----------|
|-----------------|----------|-----------------|-----------|
|-----------------|----------|-----------------|-----------|
|-2-------2-x-x-x-|-2--------|-2-------2-x-x-x-|2----------|
|-0--3b4--0-x-x-x-|-0-4--4-5-|-0--3b4--0-x-x-x-|0----------|
|-----------------|---2--2S3-|-----------------|--2-3-4----|


|-----------------|----------|-----------------|-----------|
|-----------------|----------|-----------------|-----------|
|-----------------|----------|-----------------|--3-4-5----|
|-2-------2-x-x-x-|-2--------|-2-------2-x-x-x-|2----------|
|-0--3b4--0-x-x-x-|-0-4--4-5-|-0--3b4--0-x-x-x-|0----------|
|-----------------|---2--2S3-|-----------------|-----------|
Добавлено: 10.09.2015
Другие материалы по этой песне:
  • Аккорды и текст

Страница создана 20.07.2012
http://primanota.ru/cathedral/fireball-demon-chords.htm
Привет, Гость.
Предлагаем пройти революционный курс по гитаре.
Подарок от PrimaNota.Ru, забирай!