PrimaNota.ru - самый крупный в мире бесплатный архив песенных текстов, аккордов, табулатур и нот


Cathedral - Fields Of Zagara - таба, видео

Регистрация Запомнить меня
Войти через:  Facebook Google Twitter Vk Yandex Mail.ru

Cathedral - Fields Of Zagara - таба, видео

Печатать
Просмотров: 171
Song: Fields of Zagara
Artist: Cathedral
Album: the Garden of Unearthly Delights

Words and Music by Jennings/Dorrian/Dixon/Smee
Transcribed by Jefferson Camargo (JEFFMETAL)

[I found this tab online and uploaded it. I did not tab this myself - J450N]
[All kudos to Jefferson Camargo]



Gtr I (B E A D F# B) - 'Acoustic'
Gtr II (B E A D F# B) - 'Acoustic'

 4/4
  Gtr I
|-----------------|-----------------|-----------------|----------------|
|-----8---8---8---|-----8---8---8---|-----8---8---8---|-----8---8---8--|
|---8---8---8---8-|---8---8---8---8-|---8---8---8---8-|---8---8---8---8|
|-----------------|-----------------|-----------------|----------------|
|-----------------|-----------------|-----------------|----------------|
|-8---------------|-8---------------|-9---------------|-9--------------|
|
|-----------------|-----------------|-----------------|----------------|
|-----8---8---8---|---------8---8---|-----8---8---8---|-----8---8---8--|
|---8---8---8---8-|---8---8---8---8-|---8---8---8---8-|---8---8---8---8|
|-----------------|-----------------|-----------------|----------------|
|-----------------|-----------------|-----------------|----------------|
|-8---------------|-8---8-----------|-9---------------|-9--------------|


|-----------------|-----------------|-----------------|-----------------|
|-----8---8---8---|-----8---8---8-x-|-----9---9---9---|-----9---9---9---|
|---8---8---8---8-|---8---8---8-----|---7---7---7---7-|---7---7---7---7-|
|-----------------|-----------------|-----------------|-----------------|
|-----------------|-----------------|-----------------|-----------------|
|-8---------------|-8---------------|-6---------------|-6---------------|
|
|-----------------|-----------------|-----------------|-----------------|
|-----8---8---8---|-----8---8---8---|-----9---9---9---|-----9---9---9---|
|---8---8---8---8-|---8---8---8---x-|---7---7---7---7-|---7---7---7---7-|
|-----------------|-----------------|-----------------|-----------------|
|-----------------|-----------------|-----------------|-----------------|
|-8---------------|-8---------------|-6---------------|-6---------------|


|------------------|------------------|------------------|------------------|
|-----8---8------8-|-----8---8------8-|-----8---8------8-|-----8---8------8-|
|---8---8---8------|---8---8---8------|---8---8---8------|---8---8---8------|
|-------------10---|-------------10---|-------------11---|-------------11---|
|------------------|------------------|------------------|------------------|
|-8----------------|-8----------------|-9----------------|-9----------------|
|
|------------------|------------------|------------------|------------------|
|-----8---8------8-|-----8---8------8-|-----8---8------8-|-----8---8---8----|
|---8---8---8------|---8---8---8------|---8---8---8------|---8---8---8---8--|
|-------------10---|-------------10---|-------------11---|------------------|
|------------------|------------------|------------------|------------------|
|-8----------------|-8----------------|-9----------------|-9----------------|

                                        Here the pace speeds up
|------------------|------------------:---------------|--------------|
|-----8---8------8-|-----8---8------8-:-----8--9------|-8--9------8--|
|---8---8---8------|---8---8---8------:-10--------10--|-------10-----|
|-------------10---|-------------10---:---------------|--------------|
|------------------|------------------:---------------|--------------|
|-8----------------|-8----------------:---------------|--------------|
|
|------------------|------------------:---------------|--------------|
|-----8---8------8-|-----8---8----8---:-----8--9------|-8--9------8--|
|---8---8---8------|---8---8---8------:-10--------10--|-------10-----|
|-------------10---|------------------:---------------|--------------|
|------------------|------------------:---------------|--------------|
|-8----------------|-8----------------:---------------|--------------|


|--------------|---------------|----5--6-----|-5--6-----5--|
|-9------8--9--|-----8--9------|-------------|-------------|
|----10--------|-10--------10--|-7--------7--|-------7-----|
|--------------|---------------|-------------|-------------|
|--------------|---------------|-------------|-------------|
|--------------|---------------|-------------|-------------|
|
|--------------|---------------|----5--6-----|-5--6-----5--|
|-9------8--9--|-----8--9------|-------------|-------------|
|----10--------|-10--------10--|-7--------7--|-------7-----|
|--------------|---------------|-------------|-------------|
|--------------|---------------|-------------|-------------|
|--------------|---------------|-------------|-------------|


|-6-----5--6--|----5--6-----|-----8--9------|-8--9---------|
|-------------|-------------|---------------|-----------8--|
|----7--------|-7--------7--|-10--------10--|-------10-----|
|-------------|-------------|---------------|--------------|
|-------------|-------------|---------------|--------------|
|-------------|-------------|---------------|--------------|
|
|-6-----5--6--|----5--6-----|-----8--9------|-8--9------8--|
|-------------|-------------|---------------|--------------|
|----7--------|-7--------7--|-10--------10--|-------10-----|
|-------------|-------------|---------------|--------------|
|-------------|-------------|---------------|--------------|
|-------------|-------------|---------------|--------------|


|-9------8--9--|-----8--9------|----5--6-----|-5--6-----5--|
|--------------|---------------|-------------|-------------|
|----10--------|-10--------10--|-7--------7--|-------7-----|
|--------------|---------------|-------------|-------------|
|--------------|---------------|-------------|-------------|
|--------------|---------------|-------------|-------------|
|
|-9------8--9--|-----8--9------|----5--6-----|-5--6-----5--|
|--------------|---------------|-------------|-------------|
|----10--------|-10--------10--|-7--------7--|-------7-----|
|--------------|---------------|-------------|-------------|
|--------------|---------------|-------------|-------------|
|--------------|---------------|-------------|-------------|


|-6-----5--6--|----5--6-----|-----8--9------|-8--9------8--|
|-------------|-------------|---------------|--------------|
|----7--------|-7--------7--|-10--------10--|-------10-----|
|-------------|-------------|---------------|--------------|
|-------------|-------------|---------------|--------------|
|-------------|-------------|---------------|--------------|
|
|-6-----5--6--|----5--6-----|-----8--9------|-8--9------8--|
|-------------|-------------|---------------|--------------|
|----7--------|-7--------7--|-10--------10--|-------10-----|
|-------------|-------------|---------------|--------------|
|-------------|-------------|---------------|--------------|
|-------------|-------------|---------------|--------------|


|-9------8--9--|-----8--9------|-----9--10------|-9--10------9--|
|--------------|---------------|----------------|---------------|
|----10--------|-10--------10--|-11---------11--|--------11-----|
|--------------|---------------|----------------|---------------|
|--------------|---------------|----------------|---------------|
|--------------|---------------|----------------|---------------|
|
|-9------8--9--|-----8--9------|-----9--10------|-9--10------9--|
|--------------|---------------|----------------|---------------|
|----10--------|-10--------10--|-11---------11--|--------11-----|
|--------------|---------------|----------------|---------------|
|--------------|---------------|----------------|---------------|
|--------------|---------------|----------------|---------------|


|-10------9--10--|-----9--10------|----6--7-----|-6--7-----6--|
|----------------|----------------|-------------|-------------|
|-----11---------|-11---------11--|-8--------8--|-------8-----|
|----------------|----------------|-------------|-------------|
|----------------|----------------|-------------|-------------|
|----------------|----------------|-------------|-------------|
|
|-10------9--10--|-----9--10------|----6--7-----|-6--7-----6--|
|----------------|----------------|-------------|-------------|
|-----11---------|-11---------11--|-8--------8--|-------8-----|
|----------------|----------------|-------------|-------------|
|----------------|----------------|-------------|-------------|
|----------------|----------------|-------------|-------------|


|-7-----6--7--|----6--7-----|-----9--10------|-9--10------9--|
|-------------|-------------|----------------|---------------|
|----8--------|-8--------8--|-11---------11--|--------11-----|
|-------------|-------------|----------------|---------------|
|-------------|-------------|----------------|---------------|
|-------------|-------------|----------------|---------------|
|
|-7-----6--7--|----6--7-----|-----9--10------|-9--10------9--|
|-------------|-------------|----------------|---------------|
|----8--------|-8--------8--|-11---------11--|--------11-----|
|-------------|-------------|----------------|---------------|
|-------------|-------------|----------------|---------------|
|-------------|-------------|----------------|---------------|


|-10------9--10--|-----9--10------|----6--7-----|-6--7-----6--|
|----------------|----------------|-------------|-------------|
|-----11---------|-11---------11--|-8--------8--|-------8-----|
|----------------|----------------|-------------|-------------|
|----------------|----------------|-------------|-------------|
|----------------|----------------|-------------|-------------|
|
|-10------9--10--|-----9--10------|----6--7-----|-6--7-----6--|
|----------------|----------------|-------------|-------------|
|-----11---------|-11---------11--|-8--------8--|-------8-----|
|----------------|----------------|-------------|-------------|
|----------------|----------------|-------------|-------------|
|----------------|----------------|-------------|-------------|


|-7-----6--7--|----6--7-----|---------------|--------------|
|-------------|-------------|-----8--9------|-8--9------8--|
|----8--------|-8--------8--|-10--------10--|-------10-----|
|-------------|-------------|---------------|--------------|
|-------------|-------------|---------------|--------------|
|-------------|-------------|---------------|--------------|
|
|-7-----6--7--|----6--7-----|---------------|--------------|
|-------------|-------------|-----8--9------|-8--9------8--|
|----8--------|-8--------8--|-10--------10--|-------10-----|
|-------------|-------------|---------------|--------------|
|-------------|-------------|---------------|--------------|
|-------------|-------------|---------------|--------------|


|--------------|----------------|-------------|-------------|
|-9------8--9--|-11--9--8h9p8---|----8--9-----|-8--9-----8--|
|----10--------|--------------8-|-8--------8--|-------8-----|
|--------------|----------------|-------------|-------------|
|--------------|----------------|-------------|-------------|
|--------------|----------------|-------------|-------------|
|
|--------------|----------------|-------------|-------------|
|-9------8--9--|-11--9--8h9p8---|----8--9-----|-8--9-----8--|
|----10--------|--------------8-|-8--------8--|-------8-----|
|--------------|----------------|-------------|-------------|
|--------------|----------------|-------------|-------------|
|--------------|----------------|-------------|-------------|


|-------------|----------------|---------------|--------------|
|-9-----8--9--|-11--9--8-9-8---|-----8--9------|-8--9------8--|
|----8--------|--------------8-|-10--------10--|-------10-----|
|-------------|----------------|---------------|--------------|
|-------------|----------------|---------------|--------------|
|-------------|----------------|---------------|--------------|
|
|-------------|----------------|---------------|--------------|
|-9-----8--9--|-11--9--8-9-8---|-----8--9------|-8--9------8--|
|----8--------|--------------8-|-10--------10--|-------10-----|
|-------------|----------------|---------------|--------------|
|-------------|----------------|---------------|--------------|
|-------------|----------------|---------------|--------------|


|--------------|----------------|-------------|-------------|
|-9------8--9--|-11--9--8h9p8---|----8--9-----|-8--9-----8--|
|----10--------|--------------8-|-8--------8--|-------8-----|
|--------------|----------------|-------------|-------------|
|--------------|----------------|-------------|-------------|
|--------------|----------------|-------------|-------------|
|
|--------------|----------------|-------------|-------------|
|-9------8--9--|-11--9--8h9p8---|----8--9-----|-8--9-----8--|
|----10--------|--------------8-|-8--------8--|-------8-----|
|--------------|----------------|-------------|-------------|
|--------------|----------------|-------------|-------------|
|--------------|----------------|-------------|-------------|


|-------------|----------------|----|
|-9-----8--9--|-11--9--8-9-8---|----|
|----8--------|--------------8-|----|
|-------------|----------------|----|
|-------------|----------------|----|
|-------------|----------------|----|
|
|-------------|----------------|----|
|-9-----8--9--|-11--9--8-9-8---|----|
|----8--------|--------------8-|----|
|-------------|----------------|----|
|-------------|----------------|----|
|-------------|----------------|----|

 The pace slows down again...
|------------------|------------------|------------------|------------------|
|-----8---8------8-|-----8---8------8-|-----8---8------8-|-----8---8------8-|
|---8---8---8------|---8---8---8------|---8---8---8------|---8---8---8------|
|-------------10---|-------------10---|-------------11---|-------------11---|
|------------------|------------------|------------------|------------------|
|-8----------------|-8----------------|-9----------------|-9----------------|
|
|------------------|------------------|------------------|------------------|
|-----8---8------8-|-----8---8------8-|-----8---8------8-|-----8---8------8-|
|---8---8---8------|---8---8---8------|---8---8---8------|---8---8---8------|
|-------------10---|-------------10---|-------------11---|-------------11---|
|------------------|------------------|------------------|------------------|
|-8----------------|-8----------------|-9----------------|-9----------------|


|------------------|------------------|-----------------|----------------|
|-----8---8------8-|-----8---8--------|-----9---9-------|-----9---9------|
|---8---8---8------|---8---8---8------|---7---7---7---7-|---7---7---7----|
|-------------10---|-------------10---|-------------8---|-------------8--|
|------------------|------------------|-----------------|----------------|
|-8----------------|-8----------------|-6---------------|-6--------------|
|
|------------------|------------------|-----------------|----------------|
|-----8---8------8-|-----8---8--------|-----9---9-------|-----9---9------|
|---8---8---8------|---8---8---8------|---7---7---7---7-|---7---7---7----|
|-------------10---|-------------10---|-------------8---|-------------8--|
|------------------|------------------|-----------------|----------------|
|-8----------------|-8----------------|-6---------------|-6--------------|



Acoustic I,II
|---------*|
|--8------*|
|--8------*|
|-10------*|
|-10------*|
|--8------*|
        
Добавлено: 24.06.2012
Другие материалы по этой песне:
  • Аккорды и текст

Страница создана 24.06.2012
http://primanota.ru/cathedral/fields-of-zagara-chords.htm
Привет, Гость.
Предлагаем пройти революционный курс по гитаре.
Подарок от PrimaNota.Ru, забирай!