PrimaNota.ru - самый крупный в мире бесплатный архив песенных текстов, аккордов, табулатур и нот


Cathedral - Dragon Ryder - таба, видео

Регистрация Запомнить меня
Войти через:  Facebook Google Twitter Vk Yandex Mail.ru

Cathedral - Dragon Ryder - таба, видео

Печатать
Просмотров: 74
Уроки эстрадного вокала в Санкт-Петербурге
Artist: Cathedral
Piece: Dragon Ryder
Instrument: Guitar

                                 DRAGON RYDER 13
                            As recorded by Cathedral
                (From the 1996 Album SUPERNATURAL BIRTH MACHINE)


Gtr I (C F Bb Eb G C) - 'Untitled'
Gtr II (C F Bb Eb G C) - 'Untitled'
 4/4
  Gtr I
                                            Play 4x    3.
|-----------|------------|-----------|-------------|-3--------|
|-----------|------------|-----------|-------------|----5-4-3-|
|-------9-8-|-7--7-7----4|-4S6-6S7S6-|-------------|----------|
|-4-4-4-7-6-|-5--5-5----2|-2S4-4S5S4-|-5-----------|----------|
|-2-2-2-----|------------|-----------|----7--6--5--|----------|
|-----------|------------|-----------|-------------|----------|



1.Flames are high...
2.Purple pain...                                                                       Play 2x
|--------------|------|--------------|-----|---------------|--------|--------------|----------|
|--------------|------|--------------|-----|---------------|--------|--------------|----------|
|--------------|------|--------------|-----|---------------|--------|--------------|----------|
|---------7----|-10-9-|---------7----|-7-6-|----------7----|-10--9--|---------7----|-7-6-x--5-|
|-7S9-9-9-5--9-|--8-7-|-7S9-9-9-5--9-|-5-4-|-7s-9-9-9-5--9-|--8--7--|-7-9-9-9-5--9-|-5-4-x--3-|
|-5S7-7-7----7-|------|-5S7-7-7----7-|-----|-5s7-7-7-----7-|--------|-5-7-7-7----7-|----------|


 Hold my fire...                             Play 4x
|-----------|------------|-----------|-------------|
|-----------|------------|-----------|-------------|
|-------9-8-|-7--7-7----4|-4S6-6S7S6-|-------------|
|-4-4-4-7-6-|-5--5-5----2|-2S4-4S5S4-|-5-----------|
|-2-2-2-----|------------|-----------|----7--6--5--|
|-----------|------------|-----------|-------------|



1.Spectral sky...
2.Liquid planets...                                                                    Play 2x
|--------------|------|--------------|-----|---------------|--------|--------------|----------|
|--------------|------|--------------|-----|---------------|--------|--------------|----------|
|--------------|------|--------------|-----|---------------|--------|--------------|----------|
|---------7----|-10-9-|---------7----|-7-6-|----------7----|-10--9--|---------7----|-7-6-x--5-|
|-7S9-9-9-5--9-|--8-7-|-7S9-9-9-5--9-|-5-4-|-7s-9-9-9-5--9-|--8--7--|-7-9-9-9-5--9-|-5-4-x--3-|
|-5S7-7-7----7-|------|-5S7-7-7----7-|-----|-5s7-7-7-----7-|--------|-5-7-7-7----7-|----------|




 Hold my fire...                             Play 4x
|-----------|------------|-----------|-------------|
|-----------|------------|-----------|-------------|
|-------9-8-|-7--7-7----4|-4S6-6S7S6-|-------------|
|-4-4-4-7-6-|-5--5-5----2|-2S4-4S5S4-|-5-----------|
|-2-2-2-----|------------|-----------|----7--6--5--|
|-----------|------------|-----------|-------------|


             Play 3x
|-------------------||-------------------||----|
|-------------------||-------------------||----|
|-------------------||-------------------||----|
|-------------------||-------------------||----|
|-------5---7b8r7-5-||-----------0---1---||----|
|-5h7-7---7---------||-0-2-0-2-2---2---2-||----|



1.Radiaiton,nuclear...
2.Warheads flying...                                                   Play 2x
|-----------------|----------------|-----------------|-----------------------|
|-----------------|----------------|-----------------|-----------------------|
|-----------------|----------------|-----------------|-----------------------|
|-----------------|----------------|-----------------|-------------8h9p8h9p8-|
|-----5---7b8-7-5-|-------5---7-9/-|-----5---7b8-7-5-|-------5---7-----------|
|-7-7---7---------|-5h7-7---7------|-7-7---7---------|-5h7-7---7-------------|


|---------------------|-----------------|---------------|-------------|
|---------------------|-----------------|---------------|-------------|
|---------------------|-----------------|---------------|-------------|
|-9-9-9-9-9-9-9-9-9-9-|-7-7-7-7-7-7-6-7-|-7S9-9-9-9-9-9-|-7-7-7-7-7---|
|-7-7-7-7-7-7-7-7-7-7-|-5-5-5-5-5-5-4-5-|-5S7-7-7-7-7-7-|-5-5-5-5-5---|
|---------------------|-----------------|---------------|-------------|


|----------------|---------------------|-----------------|-----------------|
|----------------|---------------------|-----------------|-----------------|
|----------------|---------------------|-----------------|-----------------|
|-11-11-11-11-11-|-9-9-9-9-9-9-9-9-9-9-|-7-7-7-7-7-7-6-7-|-7S9-9-9-9-9-9---|
|--9--9--9--9--9-|-7-7-7-7-7-7-7-7-7-7-|-5-5-5-5-5-5-4-5-|-5S7-7-7-7-7-7---|
|----------------|---------------------|-----------------|-----------------|


|---------------------|
|---------------------|
|---------------------|
|-7-7-7-7-7-----------|
|-5-5-5-5-5-7-7-7-7-7-|
|-----------5-5-5-5-5-|




1.Black corona,supernova...
2.Cosmic halo of the void...                                           Play 2x
|-----------------|----------------|-----------------|-----------------------|
|-----------------|----------------|-----------------|-----------------------|
|-----------------|----------------|-----------------|-----------------------|
|-----------------|----------------|-----------------|-------------8h9p8h9p8-|
|-----5---7b8-7-5-|-------5---7-9/-|-----5---7b8-7-5-|-------5---7-----------|
|-7-7---7---------|-5h7-7---7------|-7-7---7---------|-5h7-7---7-------------|


|---------------------|-----------------|---------------|-------------|
|---------------------|-----------------|---------------|-------------|
|---------------------|-----------------|---------------|-------------|
|-9-9-9-9-9-9-9-9-9-9-|-7-7-7-7-7-7-6-7-|-7S9-9-9-9-9-9-|-7-7-7-7-7---|
|-7-7-7-7-7-7-7-7-7-7-|-5-5-5-5-5-5-4-5-|-5S7-7-7-7-7-7-|-5-5-5-5-5---|
|---------------------|-----------------|---------------|-------------|

                   See if you can take it higher            High as low
|----------------|---------------------|-----------------|-----------------|
|----------------|---------------------|-----------------|-----------------|
|----------------|---------------------|-----------------|-----------------|
|-11-11-11-11-11-|-9-9-9-9-9-9-9-9-9-9-|-7-7-7-7-7-7-6-7-|-7S9-9-9-9-9-9---|
|--9--9--9--9--9-|-7-7-7-7-7-7-7-7-7-7-|-5-5-5-5-5-5-4-5-|-5S7-7-7-7-7-7---|
|----------------|---------------------|-----------------|-----------------|

  as i can go
|---------------------|
|---------------------|
|---------------------|
|-7-7-7-7-7-----------|
|-5-5-5-5-5-7-7-7-7-7-|
|-----------5-5-5-5-5-|



  Play 8x                                          Play 2x
|-------------|          |-----------------|-----------|---|
|-------------|          |-----------------|-----------|---|
|-------------|          |-----------------|-----------|---|
|-------------|          |-----------------|-----------|---|
|-------5-----|          |-------5-----5---|---5-------|---|
|-5h7-7---7-5-|          |-5h7-7---7-6---6-|-5---5-4-3-|---|

 Gtr.I                 Play 2x       Gtr.I                               Play 2x
|-----------------|-----------|     |-------------------------|--------------|----|
|-----------------|-----------|     |-------------------------|--------------|----|
|-----------------|-----------|     |-------------------------|--------------|----|
|-----------------|-----------|     |-------------------------|--------------|----|
|-------5-----5---|---5-------|     |-----------5--------5----|-----5--------|----|
|-5h7-7---7-6---6-|-5---5-4-3-|     |--5h=7--7-----7--6-----6-|--5-----5-4-3-|----|
|                                   |
|Gtr.II                             |Gtr.II
|-----------------|-----------|     |----------10-------10----|----10--------|----|
|-----------------|-----------|     |-10h12-12----12-11----11-|-10----10-9-8-|----|
|-----------------|-----------|     |-------------------------|--------------|----|
|-------7-----7---|---7-------|     |-------------------------|--------------|----|
|-7h9-9---9-8---8-|-7---7-6-5-|     |-------------------------|--------------|----|
|-----------------|-----------|     |-------------------------|--------------|----|


    Rhythm under solo        Play 8x
||----------------------------------||-------------------|----|
||o--------------------------------o||-------------------|----|
||----------------------------------||-------------------|----|
||----------------------------------||-11-11-11-11-11-11-|----|
||o-4--4-4-4-4-4-4-4-4-4-4-4-4-4-4-o||--9--9--9--9--9--9-|----|
||--2--2-2-2-2-2-2-2-2-2-2-2-2-2-2--||-------------------|----|


Freeze my fire tonight...                    Play 4x
|-----------|------------|-----------|-------------|
|-----------|------------|-----------|-------------|
|-------9-8-|-7--7-7----4|-4S6-6S7S6-|-------------|
|-4-4-4-7-6-|-5--5-5----2|-2S4-4S5S4-|-5-----------|
|-2-2-2-----|------------|-----------|----7--6--5--|
|-----------|------------|-----------|-------------|



1.Crystal world...
2.Wings of hell...                                                                     Play 2x
|--------------|------|--------------|-----|---------------|--------|--------------|----------|
|--------------|------|--------------|-----|---------------|--------|--------------|----------|
|--------------|------|--------------|-----|---------------|--------|--------------|----------|
|---------7----|-10-9-|---------7----|-7-6-|----------7----|-10--9--|---------7----|-7-6-x--5-|
|-7S9-9-9-5--9-|--8-7-|-7S9-9-9-5--9-|-5-4-|-7s-9-9-9-5--9-|--8--7--|-7-9-9-9-5--9-|-5-4-x--3-|
|-5S7-7-7----7-|------|-5S7-7-7----7-|-----|-5s7-7-7-----7-|--------|-5-7-7-7----7-|----------|





Hold my fire...                             Play 4x
|-----------|------------|-----------|-------------|
|-----------|------------|-----------|-------------|
|-------9-8-|-7--7-7----4|-4S6-6S7S6-|-------------|
|-4-4-4-7-6-|-5--5-5----2|-2S4-4S5S4-|-5-----------|
|-2-2-2-----|------------|-----------|----7--6--5--|
|-----------|------------|-----------|-------------|

           ~                   ~~~~~~
|--------------|-----|-------------|---------|
|--------------|-----|-------------|---------|
|--------------|-----|-------------|---------|
|--------------|-----|-------------|---------|
|-5h6-5-3-2----|-----|-2h3-2-------|---------|
|--------------|-----|-------4-3---|----2----|
Добавлено: 10.09.2015
Другие материалы по этой песне:
  • Аккорды и текст

Страница создана 10.09.2015
http://primanota.ru/cathedral/dragon-ryder-chords.htm
Привет, Гость.
Предлагаем пройти революционный курс по гитаре.
Подарок от PrimaNota.Ru, забирай!