PrimaNota.ru - самый крупный в мире бесплатный архив песенных текстов, аккордов, табулатур и нот


Cathedral - Cyclops Revolution - текст песни, таба, видео

Регистрация Запомнить меня
Войти через:  Facebook Google Twitter Vk Yandex Mail.ru

Cathedral - Cyclops Revolution - текст песни, таба, видео

Печатать
Просмотров: 56
Artist: Cathedral
Piece: Cyclops Revolution
Instrument: Guitar

                             CYCLOPS REVOLUTION
                            As recorded by Cathedral
                (From the 1996 Album SUPERNATURAL BIRTH MACHINE)

Gtr I (C F Bb Eb G C) - 'Untitled'
Gtr II (C F Bb Eb G C) - 'Untitled'
 2/2
  Gtr I             Gtr.II enters at the third time Play 3x
|-------------|-------------|-------------|-----------|----|
|-------------|-------------|-------------|-----------|----|
|-------------|-------------|-------------|-----------|----|
|---------4S5-|---------4S5-|---------4S5-|---5-6-7---|----|
|-7S5S4-0-2S3-|-7S5S4-0-2S3-|-7S5S4-0-2S3-|-0-3-4-5-5-|----|
|-5S3S2-------|-5S3S2-------|-5S3S2-------|---------3-|----|

GtrI,GtrII                 Last time before enters the voice
|-------------|-------------|-------------|-----------|----|
|-------------|-------------|-------------|-----------|----|
|-------------|-------------|-------------|-----------|----|
|---------4S5-|---------4S5-|---------4S5-|---5-6-7---|----|
|-7S5S4-0-2S3-|-7S5S4-0-2S3-|-7S5S4-0-2S3-|-0-3-4-5-3-|----|
|-5S3S2-------|-5S3S2-------|-5S3S2-------|---------1-|----|


 4/4
1.Beware the one-eyed...
2.Deadly laser from...         Play 6x  1.2.4.5.6.    3.
|-----------|-------------|-----------|-------------|-------------|----|
|-----------|-------------|-----------|-------------|-------------|----|
|-----------|-------------|-----------|-------------|-7b8-7-5-7-5-|----|
|-----------|-------------|-----------|-------------|-------------|----|
|-7S5-7S5-7-|-7S5-7S5-7S5-|-7S5-7S5-7-|-5b6-5-3-5-3-|-------------|----|
|-5S3-5S3-5-|-5S3-5S3-5S3-|-5S3-5S3-5-|-------------|-------------|----|


|----------------------|-----------------------|----------------------|
|----------------------|-----------------------|----------------------|
|----------------------|-----------------------|----------------------|
|-------6--------------|-------6---------------|-------6--------------|
|---6-8---8-6---6h8-8--|---6-8---8-6---6h8-6-6-|---6-8---8-6---6h8-8--|
|-8-----------8--------|-8-----------8---------|-8-----------8--------|


   Play 2x            1.   2. 
|------------------------|--------------|
|------------------------|--------------|
|-------------------8-8/-|--------------|
|-------6-----------8-8/-|--------------|
|---6-8---8-6---6h8-6-6/-|-6h8-6--------|
|-8-----------8----------|-------8-6-4/-|

1.Cyclops revolution...
2.Transformation for...                                           
|-------------|-------------|-------------|-----------|----|
|-------------|-------------|-------------|-----------|----|
|-------------|-------------|-------------|-----------|----|
|---------4S5-|---------4S5-|---------4S5-|---5-6-7---|----|
|-7S5S4-0-2S3-|-7S5S4-0-2S3-|-7S5S4-0-2S3-|-0-3-4-5-5-|----|
|-5S3S2-------|-5S3S2-------|-5S3S2-------|---------3-|----|

Earth children arise...
Justice in our....
|-------------|-------------|-------------|-----------|----|
|-------------|-------------|-------------|-----------|----|
|-------------|-------------|-------------|-----------|----|
|---------4S5-|---------4S5-|---------4S5-|---5-6-7---|----|
|-7S5S4-0-2S3-|-7S5S4-0-2S3-|-7S5S4-0-2S3-|-0-3-4-5-3-|----|
|-5S3S2-------|-5S3S2-------|-5S3S2-------|---------1-|----|

1.Clouds gather on...         Play 6x  1.2.4.5.6.     3.
|-----------|-------------|-----------|-------------|-------------|----|
|-----------|-------------|-----------|-------------|-------------|----|
|-----------|-------------|-----------|-------------|-7b8-7-5-7-5-|----|
|-----------|-------------|-----------|-------------|-------------|----|
|-7S5-7S5-7-|-7S5-7S5-7S5-|-7S5-7S5-7-|-5b6-5-3-5-3-|-------------|----|
|-5S3-5S3-5-|-5S3-5S3-5S3-|-5S3-5S3-5-|-------------|-------------|----|


|----------------------|-----------------------|----------------------|
|----------------------|-----------------------|----------------------|
|----------------------|-----------------------|----------------------|
|-------6--------------|-------6---------------|-------6--------------|
|---6-8---8-6---6h8-8--|---6-8---8-6---6h8-6-6-|---6-8---8-6---6h8-8--|
|-8-----------8--------|-8-----------8---------|-8-----------8--------|


   Play 2x            1.    2. 
|------------------------|--------------|
|------------------------|--------------|
|-------------------8-8/-|--------------|
|-------6-----------8-8/-|--------------|
|---6-8---8-6---6h8-6-6/-|-6h8-6--------|
|-8-----------8----------|-------8-6-4/-|

1.Cyclops revolution...
2.Transformation for...                                           
|-------------|-------------|-------------|-----------|----|
|-------------|-------------|-------------|-----------|----|
|-------------|-------------|-------------|-----------|----|
|---------4S5-|---------4S5-|---------4S5-|---5-6-7---|----|
|-7S5S4-0-2S3-|-7S5S4-0-2S3-|-7S5S4-0-2S3-|-0-3-4-5-5-|----|
|-5S3S2-------|-5S3S2-------|-5S3S2-------|---------3-|----|

Earth children arise...
Justice in our....
|-------------|-------------|-------------|-----------|----|
|-------------|-------------|-------------|-----------|----|
|-------------|-------------|-------------|-----------|----|
|---------4S5-|---------4S5-|---------4S5-|---5-6-7---|----|
|-7S5S4-0-2S3-|-7S5S4-0-2S3-|-7S5S4-0-2S3-|-0-3-4-5-3-|----|
|-5S3S2-------|-5S3S2-------|-5S3S2-------|---------1-|----|

1.I am cyclops    I got my eye on you
2.You wanna turn.. Look at me in the eye
~~~~~~~~~~~~~~~~~~~~~~~ 
|------|------|------|------|----|Play 2x
|------|------|------|------|----|
|------|------|------|------|----|
|------|------|------|------|----|
|------|------|------|------|----|
|-5b6--|-(5)--|-3b4--|-(3)--|----|



|------------|----------------------------|      |------------|-------------------|-----|
|------------|----------------------------|      |------------|-------------------|-----|
|------------|---4-5-5-7-4h5p4---4--------|      |------------|---4-5-5-7-4h5p4---|-4---|
|-5S7--------|-7---------------5---5------|      |-5S7--------|-7---------------5-|---5-|
|------------|----------------------------|      |------------|-------------------|-----|
|------------|----------------------------|      |------------|-------------------|-----|

  Solo Begins    Play 2x
||-----|-----|---|------|          |-----|------------------|
||o----|-----|---|-----o|          |-----|------------------|
||-----|-----|---|------|          |-----|------------------|
||-----|-----|---|------|          |-5s7-|(7)-5-7-5-7-------|
||o-7--|-(7)-|-5-|-(5)-o|          |-----|------------------|
||--5--|-(5)-|-3-|-(3)--|          |-----|------------------| 
                                              
|-----|-----|        |-----|------------ |-----|-------------|                           
|-----|-----|        |-----|-------------|-----|-------------|
|---0-|-(0)-|        |-----|-------------|---0-|(0)----------|
|-7s9-|-(9)-|        |-5s7-|-(7)-5-7-5-7-|-7s9-|9s12---------|
|-----|-----|        |-----|-------------|-----|-------------|
|-----|-----|        |-----|-------------|-----|-------------|

1.I am cyclops     Beware doomed nation
2.I stare at you   Prepare to die
~~~~~~~~~~~~~~~~~~~~~~~~~  
|------|------|------|------|----|Play 2x
|------|------|------|------|----|
|------|------|------|------|----|
|------|------|------|------|----|
|------|------|------|------|----|
|-5b6--|-(5)--|-3b4--|-(3)--|----|


|-------|-------|--------|--------|----|
|-------|-------|--------|--------|----|
|-------|-------|--------|--------|----|
|-------|-------|--------|--------|----|
|-3--4--|-4-5---|-5--6---|-6--9---|----|
|-1--2--|-2-3---|-3--4---|-4--7---|----|


|----------------------|-----------------------|----------------------|
|----------------------|-----------------------|----------------------|
|----------------------|-----------------------|----------------------|
|-------6--------------|-------6---------------|-------6--------------|
|---6-8---8-6---6h8-8--|---6-8---8-6---6h8-6-6-|---6-8---8-6---6h8-8--|
|-8-----------8--------|-8-----------8---------|-8-----------8--------|


   Play 2x            1.   2. 
|------------------------|--------------|
|------------------------|--------------|
|-------------------8-8/-|--------------|
|-------6-----------8-8/-|--------------|
|---6-8---8-6---6h8-6-6/-|-6h8-6--------|
|-8-----------8----------|-------8-6-4/-|

1.Cyclops revolution...
2.Transformation for...                                           
|-------------|-------------|-------------|-----------|----|
|-------------|-------------|-------------|-----------|----|
|-------------|-------------|-------------|-----------|----|
|---------4S5-|---------4S5-|---------4S5-|---5-6-7---|----|
|-7S5S4-0-2S3-|-7S5S4-0-2S3-|-7S5S4-0-2S3-|-0-3-4-5-5-|----|
|-5S3S2-------|-5S3S2-------|-5S3S2-------|---------3-|----|

Earth children arise...
Justice in our....
|-------------|-------------|-------------|-----------|----|
|-------------|-------------|-------------|-----------|----|
|-------------|-------------|-------------|-----------|----|
|---------4S5-|---------4S5-|---------4S5-|---5-6-7---|----|
|-7S5S4-0-2S3-|-7S5S4-0-2S3-|-7S5S4-0-2S3-|-0-3-4-5-3-|----|
|-5S3S2-------|-5S3S2-------|-5S3S2-------|---------1-|----|

1.Beware the one-eyed titan    Play 6x  1.2.4.5.6.   3.
|-----------|-------------|-----------|-------------|-------------|----|
|-----------|-------------|-----------|-------------|-------------|----|
|-----------|-------------|-----------|-------------|-7b8-7-5-7-5-|----|
|-----------|-------------|-----------|-------------|-------------|----|
|-7S5-7S5-7-|-7S5-7S5-7S5-|-7S5-7S5-7-|-5b6-5-3-5-3-|-------------|----|
|-5S3-5S3-5-|-5S3-5S3-5S3-|-5S3-5S3-5-|-------------|-------------|----|

                        Uhau!Look out!    Cyclops...
|----------------------|-----------------------|----------------------|
|----------------------|-----------------------|----------------------|
|----------------------|-----------------------|----------------------|
|-------6--------------|-------6---------------|-------6--------------|
|---6-8---8-6---6h8-8--|---6-8---8-6---6h8-6-6-|---6-8---8-6---6h8-8--|
|-8-----------8--------|-8-----------8---------|-8-----------8--------|


   Play 2x            1.   2. Ah,Cyclops!    
|------------------------|---------------------|
|------------------------|---------------------|
|-------------------8-8/-|---------------------|
|-------6-----------8-8/-|---------------------|
|---6-8---8-6---6h8-6-6/-|-8-6-----------------|
|-8-----------8----------|-------8-6-4-----3---|


Outro Solo Begins - Play it under the solo 'til fade out
~~~~~~~~~~~~~~~~~~~~~~~~~~~~
|------|------|------|------|----|
|------|------|------|------|----|
|------|------|------|------|----|
|------|------|------|------|----|
|------|------|------|------|----|
|-5b6--|-(5)--|-3b4--|-(3)--|----|
Добавлено: 10.09.2015
Другие материалы по этой песне:
  • Аккорды и текст

Страница создана 01.03.2012
http://primanota.ru/cathedral/cyclops-revolution-chords.htm
Привет, Гость.
Предлагаем пройти революционный курс по гитаре.
Подарок от PrimaNota.Ru, забирай!