PrimaNota.ru - самый крупный в мире бесплатный архив песенных текстов, аккордов, табулатур и нот


Cathedral - Cybertron 71 / Eternal Countdown - текст песни, таба, видео

Регистрация Запомнить меня
Войти через:  Facebook Google Twitter Vk Yandex Mail.ru

Cathedral - Cybertron 71 / Eternal Countdown - текст песни, таба, видео

Печатать
Просмотров: 45
Artist: Cathedral
Piece: Cybertron 71/Eternal Countdown
Instrument: Guitar


                     CYBERTRON 71/ETERNAL COUNTDOWN (INTRO)
                            As recorded by Cathedral
                (From the 1996 Album SUPERNATURAL BIRTH MACHINE)

Gtr I (C F Bb Eb G C) - 'Untitled'
Gtr II (C F Bb Eb G C) - 'Untitled'

 4/4
  Gtr I
                ~~~~~~~~~~~~~~~~~~~~~~~~~~~~~~~~
|-------------|-----------------------------------|-----------------|
|-------------|-----------------------------------|-----------------|
|-4b5r===4----|-----------------------------------|-----------------|
|-------------|-------1---0---1---2---3---2---3---|-----------------|
|-------------|---5---------------------0-------0-|-5-6-3-3-3-5-0---|
|-------------|-5---2---3---2---3---4-------4-----|-----------------|
|
| Gtr II
|~~~~~~~~~~~~~~~~~~~~~~~~~~~~~~~~~~~~~~~~~~~~~~
|-------------|-----------------------------------|-----------------|
|-------------|-----------------------------------|-----------------|
|-------------|-----------------------------------|-----------------|
|-------------|-------1---0---1---2---3---2---3---|-----------------|
|-------------|---5---------------------0---------|-----------------|
|-4b5=========|=5---2---3---2---3---4-------4---5-|-6-7-4-5-5-6-1h2-|

      
                                                                                           
|-----------------|-------|-----------------*|---------8-------|---------8-------|
|-----------------|-------|-----------------*|---5-6-5---5-6-5-|---5-6-5---5-6-5-|
|-----------------|-------|-----------------*|-----------------|-----------------|
|-----------------|-------|-----------------*|-0---------------|-0---------------|
|-5-6-3-3-3-5-0h2-|-------|----2-----4------*|-----------------|-----------------|
|-----------------|-1-----|-------4----2-5--*|-----------------|-----------------|
|
|
|-----------------|-------|-----------------*|---------5-------|---------5--------|
|-----------------|-------|-----------------*|-----------------|------------------|
|-----------------|-------|-----------------*|---5-7-5---5-7-5-|----5-7-5---5-7-5-|
|-----------------|-------|-----------------*|-0---------------|-0----------------|
|-----------------|-------|----2-----4------*|-----------------|------------------|
|-6-7-4-5-5-6-1h2-|-1-----|-------4----2-5--*|-----------------|------------------|


    
|---------8-------|---------8----------|---------------------*|----|
|---5-6-5---5-6-5-|---5-6-5---6-5h6p5--|---5-6-5-8-6-5h6p5---*|----|
|-----------------|--------------------|-------------------5-*|----|
|-0---------------|-0------------------|-0-------------------*|----|
|-----------------|--------------------|---------------------*|----|
|-----------------|--------------------|---------------------*|----|
|
|
|---------5-------|---------5----------|---------5-----------*|----|
|-----------------|--------------------|---------------------*|----|
|---5-7-5---5-7-5-|---5-7-5---7-5h7p5--|---5-7-5---7-5h7p5---*|----|
|-0---------------|-0------------------|-0-----------------7-*|----|
|-----------------|--------------------|---------------------*|----|
|-----------------|--------------------|---------------------*|----|
Добавлено: 10.09.2015
Другие материалы по этой песне:
  • Аккорды и текст

Страница создана 29.04.2012
http://primanota.ru/cathedral/cybertron-71-eternal-countdown-chords.htm
Привет, Гость.
Предлагаем пройти революционный курс по гитаре.
Подарок от PrimaNota.Ru, забирай!