PrimaNota.ru - самый крупный в мире бесплатный архив песенных текстов, аккордов, табулатур и нот


Cathedral - Black sunday - таба, видео

Регистрация Запомнить меня
Войти через:  Facebook Google Twitter Vk Yandex Mail.ru

Cathedral - Black sunday - таба, видео

Печатать
Просмотров: 139
Уроки эстрадного вокала в Санкт-Петербурге



INTRO
-------------------------------------
-------------------------------------
-------------------------------------
-----------------3-----------3-------
-7--5-5-5--7-3/5---5p4p3-3/5---5p4p3-
-5--3-0-3--5-------------------------

--------------------------
--------------------------
--------------------------
--------------------------
-7--5-2-5--72--2-2-2-2-2-
-5--3-0-3--5-0--0-0-0-0-0-

-------------------------------------
-------------------------------------
-------------------------------------
-----------------3-----------3-------
-7--5-5-5--7-3/5---5p4p3-3/5---5p4p3-
-5--3-0-3--5-------------------------

----------------4b5-3-0~~~-----
-------------------------------
-------------------------------
-------------------------------
-7--5-5-5--7-------------------
-5--3-0-3--5-0-----------------repeat

VERSE
--------
--------
--------
-7~/----
-7~/----
-5~/----play this before each bit of the singing

CHORUS
------------
------------
------------
-8~-7-5-2---
-8~-7-5-2~--
-6~-5-3-0~~-repeat a few times

the go back and play the intro once
then play the verse and chorus again,
but i kindof lost track after that

i think the bridge riff goes something like this
-----------------------------
-----------------------------
-----------------------------
---7-7--7-------7-7--7-------
---7-7--7-------7-7--7-------
-7-5-5--5-0h3-7-5-5--5-0h3-7-
theres more, but i dont know that

Добавлено: 18.12.2013
Другие материалы по этой песне:
  • Аккорды и текст

Страница создана 18.12.2013
http://primanota.ru/cathedral/black-sunday-chords.htm
Привет, Гость.
Предлагаем пройти революционный курс по гитаре.
Подарок от PrimaNota.Ru, забирай!