PrimaNota.ru - самый крупный в мире бесплатный архив песенных текстов, аккордов, табулатур и нот


Cathedral - Birth Machine 2000 - текст песни, таба, видео

Регистрация Запомнить меня
Войти через:  Facebook Google Twitter Vk Yandex Mail.ru

Cathedral - Birth Machine 2000 - текст песни, таба, видео

Печатать
Просмотров: 58
Artist: Cathedral
Piece: Birth Machine 2000
Instrument: Guitar

                               BIRTH MACHINE 2000
                            As recorded by Cathedral
                (From the 1996 Album SUPERNATURAL BIRTH MACHINE)

Great song!This song has,in fact 2 choruses and they are among my
favourites and a riff in the end that they borrowed straight from Black Sabbath's
Supernaut!And remember:ALWAYS LISTEN TO THE SONG TO PLAY EASIER!

Gtr I (C F Bb Eb G C) - 'Untitled'
Gtr II (C F Bb Eb G C) - 'Untitled'

   4/4
    Gtr I          Play 8x    4. 8.  
||----------|------------------||-------|-----|----|
||o---------|-----------------o||-------|-----|----|
||----------|------------------||-------|-----|----|
||----3-2---|-7-----9-10-9-10--||-3-2---|-7/--|----|
||o-0h1-0-3-|-5-----7--8-7--8-o||-1-0-3-|-5/--|----|
||--------1-|------------------||-----1-|-----|----|

 Evilution minds on...             Imagination...
|-----|-----------------------|------|-----|--------------------------|-----|----|
|-----|-----------------------|------|-----|--------------------------|-----|----|
|-----|-----------------------|------|-----|--------------------------|-----|----|
|-10--|-12-----12S13-12S10-10-|-7/---|-10--|-12-----12S13-12S10-12-10-|-7/--|----|
|--8--|-10-----10S11-10S=8--8-|-5/---|--8--|-10-----10S11-10S=8-10--8-|-5/--|----|
|-----|-----------------------|------|-----|--------------------------|-----|----|

  Plastic education...
|-----|-----------------------------|------|
|-----|-----------------------------|------|
|-----|-----------------------------|------|
|-10--|-12-----12S13-12S10-12-------|-10/--|
|--8--|-10-----10S11-10S=8-10-10-12-|-10/--|
|-----|------------------------8-10-|------|

  Cooking on the stage...
|-----|--------------------------|------|----|
|-----|--------------------------|------|----|
|-----|--------------------------|------|----|
|-10--|-12-----12S13-12S10-12-10-|-7/---|----|
|--8--|-10-----10S11-10S=8-10--8-|-5/---|----|
|-----|--------------------------|------|----|

                              Play 2x   2.
|---------|---------------------------|---------|-----------------------|
|---------|---------------------------|---------|-----------------------|
|---------|---------------------------|---------|-----------------------|
|-----3-2-|-----3-2h3p2---------------|-----3-2-|-----3-2h3p2-----------|
|-3h5-----|-3h5---------3-----3h5-----|-3-5-----|-3-5---------3-----3h5-|
|---------|---------------3h5-----3h5-|---------|---------------3h5-----|


  Warmongers getting high...            Grossmetic beauty...
|-----|----------------------|------|-----|-------------------------|-----|----|
|-----|----------------------|------|-----|-------------------------|-----|----|
|-----|----------------------|------|-----|-------------------------|-----|----|
|-10--|-12----12S13-12S10-10-|-7/---|-10--|-12----12S13-12S10-12-10-|-7/--|----|
|--8--|-10----10S11-10S=8--8-|-5/---|--8--|-10----10S11-10S=8-10--8-|-5/--|----|
|-----|----------------------|------|-----|-------------------------|-----|----|

  Radioactive ocean...
|-----|----------------------------|------|
|-----|----------------------------|------|
|-----|----------------------------|------|
|-10--|-12----12S13-12S10-12-------|-10/--|
|--8--|-10----10S11-10S=8-10-10-12-|-10/--|
|-----|-----------------------8-10-|------|

  The universal cyclist...
|-----|--------------------------|------|----|
|-----|--------------------------|------|----|
|-----|--------------------------|------|----|
|-10--|-12-----12S13-12S10-12-10-|-7/---|----|
|--8--|-10-----10S11-10S=8-10--8-|-5/---|----|
|-----|--------------------------|------|----|


1.It's a rat race              Machine breeding
2.No hesitation                In joining
                                 Play 4x     4.
|-------------|-------------|-------------|-----------|----|
|-------------|-------------|-------------|-----------|----|
|-----0-----0-|-------------|-----0-----0-|-----------|----|
|---3-----2---|-------------|---3-----2---|-----------|----|
|-1-----3-----|---------5-0-|-1-----3-----|---------5-|----|
|-------------|-1-3s5S3-----|-------------|-1-3s5S3---|----|

 Dance into the circle...
 Birth machine 2000...
         Play 4x          4.
|---------------|--------------|----|
|---------------|--------------|----|
|---------------|--------------|----|
|-7-7-9S10-9S10-|-7--7-9S10-12-|----|
|-5-5-7S=8-7S=8-|-5--5-7S=8-10-|----|
|---------------|--------------|----|

                           Play 2x      2.
|---------|---------------------------|---------|-----------------------|
|---------|---------------------------|---------|-----------------------|
|---------|---------------------------|---------|-----------------------|
|-----3-2-|-----3-2h3p2---------------|-----3-2-|-----3-2h3p2-----------|
|-3h5-----|-3h5---------3-----3h5-----|-3-5-----|-3-5---------3---------|
|---------|---------------3h5-----3h5-|---------|---------------3h5--3--|

    The rats are hungry...            Hourglass explodes...
|-----|----------------------|------|-----|-------------------------|-----|----|
|-----|----------------------|------|-----|-------------------------|-----|----|
|-----|----------------------|------|-----|-------------------------|-----|----|
|-10--|-12----12S13-12S10-10-|-7/---|-10--|-12----12S13-12S10-12-10-|-7/--|----|
|--8--|-10----10S11-10S=8--8-|-5/---|--8--|-10----10S11-10S=8-10--8-|-5/--|----|
|-----|----------------------|------|-----|-------------------------|-----|----|

        Eternal countdown...   With Fill 1
|-----|----------------------------|------|
|-----|----------------------------|------|
|-----|----------------------------|------|
|-10--|-12----12S13-12S10-12-------|-10/--|
|--8--|-10----10S11-10S=8-10-10-12-|-10/--|
|-----|-----------------------8-10-|------|

  Returnity has died...          With Fill 2
|-----|-------------------------|------|----|
|-----|-------------------------|------|----|
|-----|-------------------------|------|----|
|-10--|-12----12S13-12S10-12-10-|-7/---|----|
|--8--|-10----10S11-10S=8-10--8-|-5/---|----|
|-----|-------------------------|------|----|

 Fill 1       Fill 2
|------------|-13p12---------------|----|
|-13b15r=13--|-------13--------15--|----|
|------------|-----------12h14-----|----|
|------------|---------------------|----|
|------------|---------------------|----|
|------------|---------------------|----|



1.It's a rat race              Machine breeding
2.No hesitation                In joining
                                   Play 4x       4.
|-------------|-------------|-------------|-----------|----|
|-------------|-------------|-------------|-----------|----|
|-----0-----0-|-------------|-----0-----0-|-----------|----|
|---3-----2---|-------------|---3-----2---|-----------|----|
|-1-----3-----|---------5-0-|-1-----3-----|---------5-|----|
|-------------|-1-3s5S3-----|-------------|-1-3s5S3---|----|

 Dance into the circle...
 Birth machine 2000...
         Play 4x          4.
|-----------------|--------------|----|
|-----------------|--------------|----|
|-----------------|--------------|----|
|-7-7---9S10-9S10-|-7-7--9S10-12-|----|
|-5-5---7S=8-7S=8-|-5-5--7S=8-10-|----|
|-----------------|--------------|----|

1.It's a rat race              Machine breeding
2.No hesitation                In joining
                                   Play 4x       4.
|-------------|-------------|-------------|-----------|----|
|-------------|-------------|-------------|-----------|----|
|-----0-----0-|-------------|-----0-----0-|-----------|----|
|---3-----2---|-------------|---3-----2---|-----------|----|
|-1-----3-----|---------5-0-|-1-----3-----|---------5-|----|
|-------------|-1-3s5S3-----|-------------|-1-3s5S3---|----|

 Dance into the circle...
 Birth machine 2000...
         Play 4x          4.
|-----------------|---------------|----|
|-----------------|---------------|----|
|-----------------|---------------|----|
|-7-7---9S10-9S10-|-7-7---9S10-12-|----|
|-5-5---7S=8-7S=8-|-5-5---7S=8-10-|----|
|-----------------|---------------|----|


 As the centuries pass...(Enters at the 7th time)  Play 10 x            Question...
|-----------------|-------------------------|---------------|----------|----|
|---------3-----3-|-----3-------------------|---------3-----|----------|----|
|---2-2-2---2-2---|---2-----0h2p0-----------|---2-2-2---2-2-|----------|----|
|-0---------------|-3-----3-------3-2h3p2---|-0-------------|----------|--0-|
|-----------------|-----------------------3-|---------------|-1h3------|----|
|-----------------|-------------------------|---------------|-----1-3--|----|

                                Play 2x   2.                           
||------------------|------------------||-----------------|-----------------|
||o-----------------|-----------------o||-----------------|-----------------|
||------------------|------------------||-----------------|-----------------|
||--4-4-4-4-4-4-4-4-|-4-4-4-4-4-4-4-2--||-4-4-4-4-4-4-4-4-|-4-4-4-4-4-4-4-4/|
||o-----------------|-----------------o||-----------------|-----------------|
||------------------|------------------||-----------------|-----------------|

                    Play 1x                         Play 2x
|-----------|---------------|------------- |---------------|----|
|-----------|---------------|------------- |---------------|----|
|-----------|---------------|------------- |---------------|----|
|-----6-5-3-|---------------|------- 6-5-3-|---------------|----|
|-5---------|-3-5---5-------|-3--5-------- |-3-5---5-------|----|
|---5-------|-----4---4-3-1-|----- 5-------|-----4---4-3-1-|----|

            Oohh...               Beat me!
||-------------|--------|-------|---------|--------|--------||---|
||o------------|--------|-------|---------|--------|-------o||---|
||-------------|--------|-------|---------|--------|--------||---|
||--5--7-------|-7------|-------|-7-------|-7------|--------||---|
||o-3--5--3--5-|-5--3-5-|-5-5S3-|-5--3--5-|-5--3-5-|-5-5S3-o||---|
||--------1--3-|----1-3-|-3-3S1-|----1--3-|----1-3-|-3-3S1--||---|


Supernaut's Riff
Grim reaper of life    Save me from...     Celebrating strife...
||--------------------|-------------------|-------------------|----|
||o-------------------|-------------------|-------------------|----|
||--------------------|-------------------|-------------------|----|
||--5s7-7-7s5---5-7-7-|-5-7-7-7-5---5-7-8-|-5s7-7-7-5---5-7-7-|----|
||o-3s5-5-5s3-0-3-5-5-|-3s5-5-5s3-0-3-5-6-|-3s5-5-5s3-0-3-5-5-|----|
||--------------------|-------------------|-------------------|----|

Programmed nation R.I.P.
|---------------------||-----------|---------------|-------------|----|
|--------------------o||-----------|---------------|-------------|----|
|---------------------||-----5-4-2-|---------------|-------5-4-2-|----|
|-5s7-7-7s3---5-10-8--||-4---------|-2-4---4-------|-2-4---------|----|
|-3s5-5-5s3-0-3--8-6-o||---4-------|-----3---3-2-0-|-----4-------|----|
|---------------------||-----------|---------------|-------------|----|

                  Solo Enters                                      Play 1x
|---------------||--------------|------------------------------------------||
|---------------||o-------------|-----------------------------------------o||
|---------------||--------------|------------------------------------------||
|-2-4---4-------||--2-----6-5-3-|---------------------6-5-3----------------||
|-----3---3-2-0-||o---5---------|-3-5---5-------3-5---------3-5---5-------o||
|---------------||------5-------|-----4---4-3-1-----5-----------4---4-3-1--||

                       Play 1x                      Play 2x
||----------------------------|    |----------------------------||----|
||o---------------------------|    |---------------------------o||----|
||----------------------------|    |----------------------------||----|
||--------7-6-4---------------|    |-------7-6-4----------------||----|
||o-3-6---------4-6---6-------|    |-4-6---------4-6---6-------o||----|
||------6-----------5---5-4-2-|    |-----6-----------5---5-4-2--||----|


||--------------|---------------|---------------------------|
||o-------------|---------------|---------------------------|
||--------------|---------------|---------------------------|
||--------6-5-3-|---------------|------6-5-3----------------|
||o-4-5---------|-3-5---5-------|3-5----------3-5---5-------|
||------5-------|-----4---4-3-1-|----5------------4---4-3-1-|


 Gtr I                                               (Repeat unto the fade out)               
|----------------|----------------------|------------------------------------*|
|----------------|----------------------|------------------------------------*|
|----------------|----------------------|------------------------------------*|
|--------6--5--3-|----------------------|--------6-5-3-----------------------*|
|--5-------------|--3--5-----5----------|-3-5-------------3-5------5---------*|
|-----5----------|--------4-----4--3-1--|-----5----------------4-------4-3-1-*|
|Gtr II (Enters at the third time)
|----------------|----------------------|------------------------------------*|
|----------------|----------------------|------------------------------------*|
|-------13-12-10-|----------------------|-------13-12-10---------------------*| 
|-12-------------|-10-12----12----------|10-12------------10-12----12--------*|
|----12----------|-------11----11-10-8--|-----10----------------11----11-10-8*|
|----------------|----------------------|------------------------------------*|
Добавлено: 10.09.2015
Другие материалы по этой песне:
  • Аккорды и текст

Страница создана 09.04.2012
http://primanota.ru/cathedral/birth-machine-2000-chords.htm
Привет, Гость.
Предлагаем пройти революционный курс по гитаре.
Подарок от PrimaNota.Ru, забирай!