PrimaNota.ru - самый крупный в мире бесплатный архив песенных текстов, аккордов, табулатур и нот


Cathedral - Beneath A Funeral Sun - таба, видео

Регистрация Запомнить меня
Войти через:  Facebook Google Twitter Vk Yandex Mail.ru

Cathedral - Beneath A Funeral Sun - таба, видео

Печатать
Просмотров: 92
.  - palm mute           /  - slide up to
\  - slide down to       ~  - vibrato
h  - hammer on           b  - Bend
p  - pull off            Suffixes for bend
t  - tap                 f  - full bend    h - half bend
ph - pinched harmonic    q  - quarter bend t - tap bend
*  - see comment         ^  - Hold bend    r release bend
x  - Stuccatto           ~  - vibrato bend
,  - slight palm mute    () - ghost note, sustained note
"  - tremolo note        <> - Trill

Tuning B,E,A,D,F#,B

4/4
  Gtr I
|-----|-----|----|-----|-----|
|-10--|-11--|-9--|-11--|-----|
|--9--|-10--|-8--|-10--|-----|
|-----|-----|----|-----|-----|
|--7--|--8--|-6--|--8--|-----|
|--5--|--6--|-4--|--6--|-----|
 Gtr.II

 Ghost of war...                 Damnation...
|----------------|-------------|-----------------|-------------|
|----------------|-------------|-----------------|-------------|
|----------------|-------------|-----------------|-------------|
|-3s4--4--3s4--4-|-5--5--2-----|-3s4--4--3s4--4--|-5--5-----3--|
|-1s2--2--1s2--2-|-3--3--0--4--|-1s2--2--1s2--2--|-3--3--5--1--|
|----------------|----------2--|-----------------|-------3-----|

 Humanity...                      Atrocity...
|-----------------|-------------|-----------------|-------------|
|-----------------|-------------|-----------------|-------------|
|-----------------|-------------|-----------------|-------------|
|-3s4--4--3s4--4--|-5--5--------|-3s4--4--3s4--4--|-5--5--------|
|-1s2--2--1s2--2--|-3--3--6--5--|-1s2--2--1s2--2--|-3--3--4--3--|
|-----------------|-------4--3--|-----------------|-------2--1--|

 Moral...                        Future in...
|----------------|-------------|-----------------|-------------|
|----------------|-------------|-----------------|-------------|
|----------------|-------------|-----------------|-------------|
|-3s4--4--3s4--4-|-5--5--2-----|-3s4--4--3s4--4--|-5--5-----3--|
|-1s2--2--1s2--2-|-3--3--0--4--|-1s2--2--1s2--2--|-3--3--5--1--|
|----------------|----------2--|-----------------|-------3-----|

 Final...                         We shall...
|-----------------|-------------|-----------------|------------|
|-----------------|-------------|-----------------|------------|
|-----------------|-------------|-----------------|------------|
|-3s4--4--3s4--4--|-5--5--------|-3s4--4--3s4--4--|-5--5--7--9-|
|-1s2--2--1s2--2--|-3--3--6--5--|-1s2--2--1s2--2--|-3--3--5--7-|
|-----------------|-------4--3--|-----------------|------------|



 Funeral sun... Play 3x
|----------------|      |----------------|----|
|----------------|      |----------------|----|
|----------------|      |----------------|----|
|-11------11-9---|      |----------------|----|
|--9--11---9-7---|      |-9p7---7--------|----|
|------9---------|      |-----9---9-7-5--|----|

 Hangs above all...
|---------------|--------------------|---------------|----------------|
|---------------|--------------------|---------------|----------------|
|---------------|------------11b13---|---------------|----------------|
|-11------11-9--|-11------11--9b11---|-11------11-9--|-------7--------|
|--9--11---9-7--|--9--11---9---------|--9--11---9-7--|-9p7-----9-7----|
|------9--------|------9-------------|------9--------|-----9-------5--|



 Ashes       falling     mother      please
|----------|-----------|-----------|---------------|
|----------|-----------|-----------|---------------|
|----------|-----------|-----------|---------------|
|----------|-----------|-----------|-----5-----3---|
|-8--------|-9---------|-8---------|-----6-----4---|
|------8---|------6----|------8----|--8-----6------|


 Save our    sinners     father      please
|----------|-----------|-----------|---------------|
|----------|-----------|-----------|---------------|
|----------|-----------|-----------|---------------|
|----------|-----------|-----------|-----5-----3---|
|-8--------|-9---------|-8---------|-----6-----4---|
|------8---|------6----|------8----|--8-----6------|



 Plastic...                      Fanatics...
|----------------|-------------|-----------------|-------------|
|----------------|-------------|-----------------|-------------|
|----------------|-------------|-----------------|-------------|
|-3s4--4--3s4--4-|-5--5--2-----|-3s4--4--3s4--4--|-5--5-----3--|
|-1s2--2--1s2--2-|-3--3--0--4--|-1s2--2--1s2--2--|-3--3--5--1--|
|----------------|----------2--|-----------------|-------3-----|

 Our filth...                     God didn't...
|-----------------|-------------|-----------------|------------|
|-----------------|-------------|-----------------|------------|
|-----------------|-------------|-----------------|------------|
|-3s4--4--3s4--4--|-5--5--------|-3s4--4--3s4--4--|-5--5--7--9-|
|-1s2--2--1s2--2--|-3--3--6--5--|-1s2--2--1s2--2--|-3--3--5--7-|
|-----------------|-------4--3--|-----------------|------------|




Fatal...  Play 3x
|----------------| |----------------|----|
|----------------| |----------------|----|
|----------------| |----------------|----|
|-11------11-9---| |----------------|----|
|--9--11---9-7---| |-9p7---7--------|----|
|------9---------| |-----9---9-7-5--|----|

 For the...
|---------------|--------------------|---------------|----------------|
|---------------|--------------------|---------------|----------------|
|---------------|------------11b13---|---------------|----------------|
|-11------11-9--|-11------11--9b11---|-11------11-9--|-------7--------|
|--9--11---9-7--|--9--11---9---------|--9--11---9-7--|-9p7-----9-7----|
|------9--------|------9-------------|------9--------|-----9-------5--|



 Ashes       falling     mother      please
|----------|-----------|-----------|---------------|
|----------|-----------|-----------|---------------|
|----------|-----------|-----------|---------------|
|----------|-----------|-----------|-----5-----3---|
|-8--------|-9---------|-8---------|-----6-----4---|
|------8---|------6----|------8----|--8-----6------|


 Save our    sinners     father      please
|----------|-----------|-----------|---------------|
|----------|-----------|-----------|---------------|
|----------|-----------|-----------|---------------|
|----------|-----------|-----------|-----5-----3---|
|-8--------|-9---------|-8---------|-----6-----4---|
|------8---|------6----|------8----|--8-----6------|


Lee screams


|-----------------|-----------------|-----------------|-----------------|
|-----------------|-----------------|-----------------|-----------------|
|-----------------|-----------------|-----------------|-----------------|
|-----------------|-----------------|-----------------|-----------------|
|-3h4---3h4---3---|-3h4---3h4---3-4-|-3h4---3h4---3---|-3h4---3h4---3---|
|-----6-----6---3-|-----6-----6-----|-----6-----6---3-|-----6-----6---1-|


|--------------|-------------|----|
|--------------|-------------|----|
|--------------|-------------|----|
|-------14/----|--------14/--|----|
|-6\----12/----|-6\-----12/--|----|
|-4\-----------|-4\----------|----|


|-----------------|-----------------|-----------------|-----------------|
|-----------------|-----------------|-----------------|-----------------|
|-----------------|-----------------|-----------------|-----------------|
|-----------------|-----------------|-----------------|-----------------|
|-3h4---3h4---3---|-3h4---3h4---3-4-|-3h4---3h4---3---|-3h4---3h4---3---|
|-----6-----6---3-|-----6-----6-----|-----6-----6---3-|-----6-----6---1-|

|--------------|-------------------|----|
|--------------|-------------------|----|
|--------------|-------------------|----|
|-------14/----|--------------14/--|----|
|-6\----12/----|-6--6--6\-----12/--|----|
|-4\-----------|-4--4--4\----------|----|




 Mortic?...                          Spectral visions...
|-----------------|----------------|-----------------|----------------|
|-----------------|----------------|-----------------|----------------|
|---9---9---7---7-|---7------4-4-4-|---9---9---7---7-|---7------------|
|-----------------|----------------|-----------------|----------7-7-7-|
|-7---7---5---5---|-4---4-2--------|-7---7---5---5---|-4---4-0--0-0-0-|
|-----------------|----------------|-----------------|----------------|


|-----------------|----------------|-----------------|----------------|
|-----------------|----------------|-----------------|----------------|
|---9---9---7---7-|---7------4-4-4-|---9---9---7---7-|---7------------|
|-----------------|----------------|-----------------|----------7-7---|
|-7---7---5---5---|-4---4-2--------|-7---7---5---5---|-4---4-0--0-0---|
|-----------------|----------------|-----------------|----------------|

|-------------|-------------|----|
|-------------|-------------|----|
|-------------|-------------|----|
|-------------|-------------|----|
|-9/----9/----|-9/----9/----|----|
|-7/----7/----|-7/----7/----|----|


 Stars...                            frank??...
|-----------------|----------------|-----------------|----------------|
|-----------------|----------------|-----------------|----------------|
|---9---9---7---7-|---7------4-4-4-|---9---9---7---7-|---7------------|
|-----------------|----------------|-----------------|----------7-7-7-|
|-7---7---5---5---|-4---4-2--------|-7---7---5---5---|-4---4-0--0-0-0-|
|-----------------|----------------|-----------------|----------------|


|-----------------|----------------|-----------------|----------------|
|-----------------|----------------|-----------------|----------------|
|---9---9---7---7-|---7------4-4-4-|---9---9---7---7-|---7------------|
|-----------------|----------------|-----------------|----------7-7---|
|-7---7---5---5---|-4---4-2--------|-7---7---5---5---|-4---4-0--0-0---|
|-----------------|----------------|-----------------|----------------|


|-------------|-------------|----|
|-------------|-------------|----|
|-------------|-------------|----|
|-------------|-------------|----|
|-9/----9/----|-9/----9/----|----|
|-7/----7/----|-7/----7/----|----|


 Rhythm under solo
          Play 4x              Play 2x
|----------------|   |----------------|----|
|----------------|   |----------------|----|
|----------------|   |----------------|----|
|----------------|   |----------------|----|
|-3h5-5-3-5--5-5-|   |-4h6-6-6-2--2-2-|----|
|----------------|   |----------------|----|

 Bass solo
|----------------|----------------|-----------------|-----------------|
|----------------|----------------|-----------------|-----------------|
|----------------|----------------|-----------------|-----------------|
|----------------|----------------|-----------------|-----------------|
|-3h5-5-3-5--5-5-|-3h5-5---5--5-5-|-3h5-/7-3-5--5-5-|-3h5-/7-3-5--5-5-|
|----------------|----------------|-----------------|-----------------|

 Guitar solo           (solo ends)                      Guitar lick here
|----------------|----------------||----------------|----------------|
|----------------|----------------||----------------|----------------|
|----------------|----------------||----------------|----------------|
|----------------|----------------||----------------|----------------|
|-4h6-6-6-2--2-2-|-4h6-6-6-2--2-2-||-0h2-2-0--------|-0h2-2-0--------|
|----------------|----------------||---------3---3--|---------3---3--|


|------------|------------|----|
|------------|------------|----|
|------------|------------|----|
|------------|------------|----|
|-8-7-6------|-6-5-4------|----|
|-------8-6--|-------6-4--|----|



 Black...                        Our vulture's...
|----------------|-------------|-----------------|-------------|
|----------------|-------------|-----------------|-------------|
|----------------|-------------|-----------------|-------------|
|-3s4--4--3s4--4-|-5--5--2-----|-3s4--4--3s4--4--|-5--5-----3--|
|-1s2--2--1s2--2-|-3--3--0--4--|-1s2--2--1s2--2--|-3--3--5--1--|
|----------------|----------2--|-----------------|-------3-----|

 World...                          orgasmic...
|-----------------|-------------|-----------------|-------------|
|-----------------|-------------|-----------------|-------------|
|-----------------|-------------|-----------------|-------------|
|-3s4--4--3s4--4--|-5--5--------|-3s4--4--3s4--4--|-5--5--------|
|-1s2--2--1s2--2--|-3--3--6--5--|-1s2--2--1s2--2--|-3--3--4--3--|
|-----------------|-------4--3--|-----------------|-------2--1--|

 Undertakers...                   a cost of...
|----------------|-------------|-----------------|-------------|
|----------------|-------------|-----------------|-------------|
|----------------|-------------|-----------------|-------------|
|-3s4--4--3s4--4-|-5--5--2-----|-3s4--4--3s4--4--|-5--5-----3--|
|-1s2--2--1s2--2-|-3--3--0--4--|-1s2--2--1s2--2--|-3--3--5--1--|
|----------------|----------2--|-----------------|-------3-----|

 Ghost of man...                   no sight...
|-----------------|-------------|-----------------|------------|
|-----------------|-------------|-----------------|------------|
|-----------------|-------------|-----------------|------------|
|-3s4--4--3s4--4--|-5--5--------|-3s4--4--3s4--4--|-5--5--7--9-|
|-1s2--2--1s2--2--|-3--3--6--5--|-1s2--2--1s2--2--|-3--3--5--7-|
|-----------------|-------4--3--|-----------------|------------|



 Funeral sun... Play 3x
|----------------|      |----------------|----|
|----------------|      |----------------|----|
|----------------|      |----------------|----|
|-11------11-9---|      |----------------|----|
|--9--11---9-7---|      |-9p7---7--------|----|
|------9---------|      |-----9---9-7-5--|----|

 mordits??...
|---------------|--------------------|---------------|----------------|--|
|---------------|--------------------|---------------|----------------|--|
|---------------|------------11b13---|---------------|----------------|--|
|-11------11-9--|-11------11--9b11---|-11------11-9--|-------7--------|--|
|--9--11---9-7--|--9--11---9---------|--9--11---9-7--|-9p7-----9-7----|--|
|------9--------|------9-------------|------9--------|-----9-------5--|--|



 Earth has     fallen     no more      plead
|----------|-----------|-----------|---------------|
|----------|-----------|-----------|---------------|
|----------|-----------|-----------|---------------|
|----------|-----------|-----------|-----8-----6---|
|-8--------|-9---------|-8---------|-----6-----4---|
|------8---|------6----|------8----|--8-----6------|


 mankind's    burning    Gtr.II
|----------|-----------|-------------|
|----------|-----------|-9-8-9-------|
|----------|-----------|-------------|
|----------|-----------|-5-6-5-------|
|-8--------|-9---------|-8-----------|
|------8---|------6----|--------8----|

                                      
|-------------|-------------|---------|-----|----|----|------------------|
|-------------|-------------|---------|-----|----|----|------------------|
|-------------|-------------|---------|-----|----|----|------------------|
|----5-----3--|----5-----4--|-----3---|-3---|-3--|3---|---3-3-x-x-3-3----|
|----6-----4--|----3-----2--|-----1---|-1---|-1--|1---|---1-1-x-x-1-1----|
|-8-----6-----|-4-----3-----|-2-------|-----|----|----|------------------|
Добавлено: 21.03.2012
Другие материалы по этой песне:
  • Аккорды и текст

Страница создана 21.03.2012
http://primanota.ru/cathedral/beneath-a-funeral-sun-chords.htm
Привет, Гость.
Предлагаем пройти революционный курс по гитаре.
Подарок от PrimaNota.Ru, забирай!