PrimaNota.ru - самый крупный в мире бесплатный архив песенных текстов, аккордов, табулатур и нот


Catfish And The Bottlemen - Hourglass - аккорды и текст, таба, видео

Регистрация Запомнить меня
Войти через:  Facebook Google Twitter Vk Yandex Mail.ru

Catfish And The Bottlemen - Hourglass - аккорды и текст, таба, видео

Печатать
Просмотров: 597
Уроки эстрадного вокала в Санкт-Петербурге
Авторы музыки: Catfish and the Bottlemen
Авторы текста: Van McCann
Hourglass
Catfish And The Bottlemen
-------------------------------------------------------------------------------
                             HOURGLASS - Catfish and the Bottlemen
-------------------------------------------------------------------------------
Tabbed by: Gu1tar K1d
E-mail: mussyjunior@hotmail.co.uk

Tuning: Standard, capo on 2

Main riff:
e|-------------------------------------|
B|-------------------------------------|
G|-------------------------------------|
D|-------------------------------------|
A|-11-11-11-11---9---2---4---7-7-------| x2
E|----------0--0-0-0-0-0-0-0-0---0-----|

e|-------------------------------------|
B|-------------------------------------|
G|-------------------------------------|
D|-------------------------------------|
A|-11-11-11-11---9---11-11-11-11---9---| x1
E|-0-----------0-0-0-0-----------0-0-0-|

e|-------------------------------------|
B|-------------------------------------|
G|-------------------------------------|
D|-------------------------------------|
A|-11-11-11-11---9---2---4---7-7-------| x1
E|----------0--0-0-0-0-0-0-0-0---0-----|

Play this where the 'E' chord is denoted in the verses, or simply just strum an E. 


E
You know when you're gone I struggle at night
E
Dreams of you fucking me all the time
E
And I know your tied up
E
And I know your phone's fucked
E
I'm craving your calls like a soldier's wife

F#m                        G#m
I wanna bring you home myself
F#m                 A G#/E F#m G#/E E
Bring you home myself

E

E
Come back, move in, mess my place
E
Chest infect me, waste my days
E
Cause I know you love to drive me up the wall
E
I know you love to drive me up the wall

F#m                       G#m
I wanna bring you home myself
F#m                A G#/E F#m G#/E E
Bring you home myself

        C#m  A                        E
And I'm so impatient when you're not mine
        C#m    A                      E
I just want to catch up on all the lost times
         B      
And I'll say I'm sorry if I sound sordid
       C#m         A            E      
Cause all I really ever want is you

B A E x2

E
Offer my hand and I'll take your name
E
Share my shower, kiss my frame
E
Cause I wanna carry all of your children
E
And I wanna call them stupid shit
Добавлено: 21.10.2014
Другие материалы по этой песне:
  • Аккорды и текст

Страница создана 25.08.2014
http://primanota.ru/catfish-and-the-bottlemen/hourglass-chords.htm
Привет, Гость.
Предлагаем пройти революционный курс по гитаре.
Подарок от PrimaNota.Ru, забирай!