PrimaNota.ru - самый крупный в мире бесплатный архив песенных текстов, аккордов, табулатур и нот


Catfish And The Bottlemen - Business - аккорды и текст, видео

Регистрация Запомнить меня
Войти через:  Facebook Google Twitter Vk Yandex Mail.ru

Catfish And The Bottlemen - Business - аккорды и текст, видео

Печатать
Просмотров: 103
Авторы музыки: Catfish and the Bottlemen
Авторы текста: Van McCann
Business
Catfish And The Bottlemen
Business by Catfish and the Bottlemen
In my opinion this is the best song of an amazing debut album, The Balcony. I'm still 
try a figure out
the "I wanna make you my business..." riff that they use, so any help would be cool. Here's what I got  so far. All notes are not relative to the capo, and can played without one. 

-----------------------------------------------------------------------
----5/7\5---5---------5/7\5---5---------------5/7\5---5----------------
-----------6---4--6----------6---4--6--4-------------6---4--6--4-------
-----------------------------------------6------------------------6p4--
------------------------------------------------------------------------
----------------------------------------------------------------------- 

-------------------------------------------------------------------------------
----5/7\5---5-------5/7\5---5-------------5/7\5---5----------5/7\5---5---------
----------6---4--6---------6---4--6--4----------6---4--6------------6---4--6----
----------------------------------------6---------------------------------------
--------------------------------------------------------------------------------
--------------------------------------------------------------------------------

https://m.youtube.com/watch?v=2htS0Q1vtwI

Em11 Em/C
-0-----x----|
-0-----x----|
-0-----0----|
-0-----2----|
-0-----3----|
-x-----x----|

Capo 2

Em  Em/C    G
I wanna love you
  C          G
But I've no time
        Em   Em/C             G
for your friends who can fucking do one
            C       G
I've had a rough night
           Em   Em/C   G
Let's get drunk in your bedroom
        C          G
And have a smoke in your window
             Em    Em/C      G
Until you're urging I tear up your clothes

C-D

      C         Em
And all I wanna know
         C        Em-Em11 x3
Is just how far you wanna go

G                  C
I wanna make it my business
Em               D
I wanna tolerate drunk you, honey
G                C
I wanna make it my problem
Em                D

Em        Em/C            G
Listen I know that you said you'd be sleeping
                  C        G
Babe, it's been a rough night
Em          Em/C          G
Narcissistic but fuck it I'm calling
                   C    G
I need to know you're alright

     Em      Em/C    G
You see now I found a lover
              C           G
Who can be in peace with my mother
     Em    Em/C         G
And I ain't ever letting her go
C - D

       C         Em
'Cause all I wanna know
       C         Em-Em11 x3
Is just how far you wanna go

G                  C
I wanna make it my business
Em               D
I wanna tolerate drunk you, honey
G                C
I wanna make it my problem
Em                D

C
If you've been having doubts at all
Em                    D
Then you can come and mess my bed up
C
And I can change your marital status
Em                    D

C
If you've been having doubts at all
Em                    D
If you've been having doubts at all
C
If you've been having doubts at all
Em                    D

G                  C
I wanna make it my business
    Em            D
I wanna tolerate drunk you, honey
G              C
I wanna make it my problem
Em                  D
I wanna make it my problem
Добавлено: 08.10.2015
Другие материалы по этой песне:
  • Аккорды и текст

Страница создана 08.10.2015
http://primanota.ru/catfish-and-the-bottlemen/business-chords.htm
Привет, Гость.
Предлагаем пройти революционный курс по гитаре.
Подарок от PrimaNota.Ru, забирай!