PrimaNota.ru - самый крупный в мире бесплатный архив песенных текстов, аккордов, табулатур и нот


Cate Le Bon - Duke - таба, видео

Регистрация Запомнить меня
Войти через:  Facebook Google Twitter Vk Yandex Mail.ru

Cate Le Bon - Duke - таба, видео

Печатать
Просмотров: 33
-------------------------------------------------------------------------------
                             DUKE - Cate Le Bon
-------------------------------------------------------------------------------
Tabbed by:
E-mail:

Tuning: EADGBE

Intro

Guitar 1
   F#        E   B                   F#        E   B
e|-2-2-2-2---0---2-2-2-2-2---2-2-----2-2-2-2---0---2-2-2-2-2---2-2-----------|
B|-2-2-2-2---0---4-4-4-4-4---4-4-----2-2-2-2---0---4-4-4-4-4---4-4-----------|
G|-3-3-3-3---1---4-4-4-4-4---4-4-----3-3-3-3---1---4-4-4-4-4---4-4-----------|
D|-4-4-4-4---2---4-4-4-4-4---4-4-----4-4-4-4---2---4-4-4-4-4---4-4-----------|
A|-4-4-4-4---2---2-2-2-2-2---2-2-----4-4-4-4---2---2-2-2-2-2---2-2-----------|
E|---------------------------------------------------------------------------|
   G#m       E   B
e|-4-4-4-4---0---2-2-2-2-2---2-2---------------------------------------------|
B|-4-4-4-4---0---4-4-4-4-4---4-4---------------------------------------------|
G|-4-4-4-4---1---4-4-4-4-4---4-4---------------------------------------------|
D|-6-6-6-6---2---4-4-4-4-4---4-4---------------------------------------------|
A|-6-6-6-6---2---2-2-2-2-2---2-2---------------------------------------------|
E|-4-4-4-4-------------------------------------------------------------------|

Guitar 2
e|-----------9h11p9-------------------------------|
B|------9h11--------11-9--------------------------|
G|-----------------------11-----------------------| x3
D|--------------------------9-9-9-9-9-9-------9---|
A|--------------------------------------7-7-7-----|
E|--------------------------------------9-9-9-----|


Verse

F#              E B
On Market Square
F#              E B
We were carried away
G#m             E B
We studied entire empires
F#              E B
When you would joke
F#              E B
We landscaped our legacies
G#m             E B
And thought about wars

chords continue...
e|-6-4---4-------------------------------------------------------------------|
B|-----7---7-4-7-4---4-7-4---------------------------------------------------|
G|-----------------6---------6-3---------------------------------------------|
D|---------------------------------------------------------------------------|
A|---------------------------------------------------------------------------|
E|---------------------------------------------------------------------------|
  I don't know how we have come to function so far away

e|-6-4---4-------------------------------------------------------------------|
B|-----7---7-4-7-4---4-7-4---------------------------------------------------|
G|-----------------6---------6-3---------------------------------------------|
D|---------------------------------------------------------------------------|
A|---------------------------------------------------------------------------|
E|---------------------------------------------------------------------------|
  Drifting in directness with the compass we've made, you know
                                           F#...
e|----------------------------------------------12-14-14-14-14-12----------12|
B|-------------------------------------------14-------------------------14---|
G|---------------------------------------------------------------------------|
D|------------9-9-9-------9--------------------------------------------------|
A|------------------7-7-7----------------------------------------------------|
E|------------------9-9-9----------------------------------------------------|
  It's our best work        I'll see you here                       Here

e|14-14-14-14-12-----------12-14-14-14-14-12---etc---------------------------|
B|----------------------14---------------------------------------------------|
G|---------------------------------------------------------------------------|
D|---------------------------------------------------------------------------|
A|---------------------------------------------------------------------------|
E|---------------------------------------------------------------------------|
                   Here...

Guitar 1
F# E B

G#m
Where the weather licked your face dry
B
The weather licked your face dry

(At the end of this section the second time around Guitar 2 accompanies rythm with:
e|------------------|
B|--12--then--16----|
G|--13--------16----|
D|------------------|
A|------------------|
E|------------------|)



************************************

| /   slide up
| \   slide down
| h   hammer-on
| p   pull-off
| ~   vibrato
| +   harmonic
| x   Mute note
| b   Bend
| pb  Pre-bend
| br  Bend release
| pbr Pre-bend release
| brb Bend release bend

************************************
Добавлено: 11.05.2016
Другие материалы по этой песне:
  • Аккорды и текст

Страница создана 11.05.2016
http://primanota.ru/cate-le-bon/duke-chords.htm
Привет, Гость.
Предлагаем пройти революционный курс по гитаре.
Подарок от PrimaNota.Ru, забирай!