PrimaNota.ru - самый крупный в мире бесплатный архив песенных текстов, аккордов, табулатур и нот


Cate Le Bon - Are You With Me Now - таба, видео

Регистрация Запомнить меня
Войти через:  Facebook Google Twitter Vk Yandex Mail.ru

Cate Le Bon - Are You With Me Now - таба, видео

Печатать
Просмотров: 86
-------------------------------------------------------------------------------
                             ARE YOU WITH ME NOW? - Cate Le Bon
-------------------------------------------------------------------------------
Tabbed by: me
E-mail:

Tuning: EADGBE

GUITAR 1

(intro & chorus)
   C         F      G                           Dm        F      G
e|-00(0)00---11(1)1/33(3)33-3-5/7-5-3-0---------11(1)11---11(1)1/33(3)33-3-5-|
B|-11(1)11---11(1)1/33(3)33-3-----------3-1-0---33(3)33---11(1)1/33(3)33-3---|
G|-00(0)00---22(2)2/44(4)44-4-----------------0-22(2)22---22(2)2/44(4)44-4---|
D|-22(2)22---33(2)3/55(5)55---------------------00(0)00---33(2)3/55(5)55-----|
A|-33(3)33---33(3)3/55(5)55-------------------------------33(3)3/55(5)55-----|
E|-----------11(1)1/33(3)33-------------------------------11(1)1/33(3)33-----|
                                                                               x2
e|3--------------------------------------------------------------------------|
B|--5-3----------------------------------------------------------------------|
G|------5-4------------------------------------------------------------------|
D|-----------5---------------------------------------------------------------|
A|---------------------------------------------------------------------------|
E|---------------------------------------------------------------------------|

(verse)

C        F     G
 Oh, the sinking spell
Dm       F   G
 Got to tiny heals
C        F     G
 Pin the notice to posts
Dm       F           G
 And then crawled in my mouth

 There is a feeling I love
 Buried in my brow
 I have no reason to run
 I see no reason
                  G
etc.

(fill during verse after G)
e|-3-3------3----------------------------------------------------------------|
B|-3----3------3-------------------------------------------------------------|
G|-4------4------4-----------------------------------------------------------|
D|---------------------------------------------------------------------------|
A|---------------------------------------------------------------------------|
E|---------------------------------------------------------------------------|

GUITAR 2

(intro)

e|---------------------------------------------------------------------------|
B|---------------------------------------------------------------------------|
G|---------------------------------------------------------------------------| x2
D|---------7-7-7-7-5--5-7-5-----------------------------7-7-7-7-5--5-7-5-----|
A|-3--------------------------------------------5----------------------------|
E|---------------------------------------------------------------------------|


(verse)
0:48
e|---------------------------------------------------------------------------|
B|---------------------------------------------------------------------------|
G|---------------------------------------------------------------------------|
D|---------7-7-7-7-5--5-7-5-----------------------------7-7-7-7-5--5-7-5-----|
A|----------------------------------------------5----------------------------|
E|-5-------------------------------------------------------------------------|

e|---------------------------------------------------------------------------|
B|---------------------------------------------------------------------------|
G|---------------------------------------------------------------------------|
D|---------7-7-7-7-5--5-7-5-----------------------------7--------------------|
A|----------------------------------------------5---------7-5---5-7-5---5----|
E|-5----------------------------------------------------------8-------8------|

(chorus)

e|-8-8(8)-10-8\---1-1(1)-1/3(3)-3-5-3--------5-8-5-8-5\--1-1(1)-1/3(3)-3-5-3-|
B|-8-8(8)-8--8\---1-1(1)-1/3(3)-3-3-3--------5-8-5-8-5\--1-1(1)-1/3(3)-3-3-3-|
G|-9-9(9)-9--9\---2-2(2)-2/4(4)-4-4-4--------------------2-2(2)-2/4(4)-4-4-4-| x2
D|---------------------------------------------------------------------------|
A|---------------------------------------------------------------------------|
E|---------------------------------------------------------------------------|

(verse 2)
1:59
e|---------------------------------------------------------------------------|
B|---------------------------------------------------------------------------|
G|---------------------------------------------------------------------------|
D|---------7-7-7-7-5--5-7-5-----------------------------7-7-7-7-5--5-7-5-----|
A|----------------------------------------------5----------------------------|
E|-5-------------------------------------------------------------------------|

e|---------------------------------------------------------------------------|
B|---------------------------------------------------------------------------|
G|---------------------------------------------------------------------------|
D|----------------------------------------------5-------7--------------------|
A|--------------------------------------------------5-----7-5---5-7-5---5----|
E|-5-------1-1-1-1-3--3--3------------------------------------8-------8------|

(bridge)
2:46
e|---------------------------------------------------------------------------|
B|---------------------------------------------------------------------------|
G|---------------------------------------------------------------------------|
D|---------7-7-7-7-5--5-7-5-----------------------------9-9-9-9-5--5-7-5-----|
A|----------------------------------------------5----------------------------|
E|-5-------------------------------------------------------------------------|

e|---------------------------------------------------------------------------|
B|---------------------------------------------------------------------------|
G|---------------------------------------------------------------------------|
D|---------7-7-7-7-5--5-7-5-----------------------------7--------------------|
A|----------------------------------------------5---------7-5---5-7-5---5----|
E|-5----------------------------------------------------------8-------8------| 

e|---------------------------------------------------------------------------|
B|---------------------------------------------------------------------------|
G|---------------------------------------------------------------------------|
D|---------------------------------------------------------------------------|
A|----5--5--5--5--5--5...----------------------------------------------------|
E|---------------------------------------------------------------------------|

(fill at the end)
3:56
e|---1---------3-----5-----7------10-12--10--8-------------------------------|
B|-----1-------------------------------------8-------------------------------|
G|-2-----2-2/4---4/5---5/7---7/10------------9-------------------------------|
D|---------------------------------------------------------------------------|
A|---------------------------------------------------------------------------|
E|---------------------------------------------------------------------------|

************************************

| /   slide up
| \   slide down
| h   hammer-on
| p   pull-off
| ~   vibrato
| +   harmonic
| x   Mute note
| b   Bend
| pb  Pre-bend
| br  Bend release
| pbr Pre-bend release
| brb Bend release bend

************************************
Добавлено: 04.12.2015
Другие материалы по этой песне:
  • Аккорды и текст

Страница создана 03.12.2015
http://primanota.ru/cate-le-bon/are-you-with-me-now-chords.htm
Привет, Гость.
Предлагаем пройти революционный курс по гитаре.
Подарок от PrimaNota.Ru, забирай!