PrimaNota.ru - самый крупный в мире бесплатный архив песенных текстов, аккордов, табулатур и нот


Catch 22 - Supernothing Horn - таба, видео

Регистрация Запомнить меня
Войти через:  Facebook Google Twitter Vk Yandex Mail.ru

Catch 22 - Supernothing Horn - таба, видео

Печатать
Просмотров: 89
Supernothing
Catch 22 (or Streetlight Manifesto)

This is the trombone mini-solo as well as the rest of the hornline
(good to use for a cover in case your band doesn't have a hornline)
(this is written assuming you know how the hornline pattern is established)

Intro
|----------------------------|
|-1--0-1-0-------------1-0~--|
|----------2--0-2-0----------|
|-------------------3--------|
|----------------------------|
|----------------------------|

Chorus                x2
|-----------------------|--------|----------|
|-1-1-0-1-0-------------|--------|-----0----|
|-----------2-2-0-2-0---|---2-0--|-0-2---0--|
|---------------------3-|-3------|----------|
|-----------------------|--------|----------|
|-----------------------|--------|----------|

Verse
|-0-0-0-0---------|-------0--|
|---------3-1-3-1-|---0-3----|
|-----------------|-0--------|
|-----------------|----------|
|-----------------|----------|
|-----------------|----------|
Добавлено: 02.10.2013
Другие материалы по этой песне:
  • Аккорды и текст

Страница создана 02.10.2013
http://primanota.ru/catch-22/supernothing-horn-chords.htm
Привет, Гость.
Предлагаем пройти революционный курс по гитаре.
Подарок от PrimaNota.Ru, забирай!