PrimaNota.ru - самый крупный в мире бесплатный архив песенных текстов, аккордов, табулатур и нот


Catch 22 - Prologue - таба, видео

Регистрация Запомнить меня
Войти через:  Facebook Google Twitter Vk Yandex Mail.ru

Catch 22 - Prologue - таба, видео

Печатать
Просмотров: 97
-------------------------------------------------------------------------------
			     PROLOGUE - Catch 22
-------------------------------------------------------------------------------
Tabbed by: Jon Brown
Email: familyguyantiflag@yahoo.com

Tuning: standard

INTRO x2 (guitar comes in after piano):

e|--7-7-7-7-7--3-3-3-3-3--5-5-5-5-5----7-7--7-7------------------------------|
B|--8-8-8-8-8--5-5-5-5-5--5-5-5-5-5----7-7--7-7------------------------------|
G|--9-9-9-9-9--5-5-5-5-5--5-5-5-5-5----7-7--7-7------------------------------|
D|--9-9-9-9-9--5-5-5-5-5--7-7-7-7-7----9-9--9-9------------------------------|
A|--7-7-7-7-7--3-3-3-3-3--7-7-7-7-7----9-9--9-9------------------------------|
E|------------------------5-5-5-5-5----7-7--7-7------------------------------|

VERSE x2 (ska strumming):

e|--0-0-0-0--5-5-5-5--3-3-3-3--0-0-0-0--5-5-5-5-5-5-5-5--2-2--2--------------|
B|--0-0-0-0--7-7-7-7--3-3-3-3--0-0-0-0--5-5-5-5-5-5-5-5--2-2--2--------------|
G|--0-0-0-0--7-7-7-7--4-4-4-4--0-0-0-0--5-5-5-5-5-5-5-5--2-2--4--------------|
D|--2-2-2-2--7-7-7-7--5-5-5-5--2-2-2-2--7-7-7-7-7-7-7-7--4-4--4--------------|
A|--2-2-2-2--5-5-5-5--5-5-5-5--2-2-2-2--7-7-7-7-7-7-7-7--4-4--2--2-3-2-------|
E|--0-0-0-0-----------3-3-3-3--0-0-0-0--5-5-5-5-5-5-5-5--2-2--2--------5-3-2-|

PRE-CHORUS (x3):

"Ready set go, it's easy you know"
e|---------------------------------------------------------------------------|
B|---------------------------------------------------------------------------|
G|--------5--2---------------------------------------------------------------|
D|--2--5--5--2---------------------------------------------------------------|
A|--2--5--3--0---------------------------------------------------------------|
E|--0--3---------------------------------------------------------------------|

"all that they've got and so it goes"
e|---------------------------------------------------------------------------|
B|---------------------------------------------------------------------------|
G|--2-2--4-------------------------------------------------------------------|
D|--2-2--4--2-2-2-2-2-2-2-2--------------------------------------------------|
A|--0-0--2--2-2-2-2-2-2-2-2--------------------------------------------------|
E|----------0-0-0-0-0-0-0-0--------------------------------------------------|
            x x x x x x x x


CHORUS (strike each note once):

"Suspend your disbelief in revolution"
e|---------------------------------------------------------------------------|
B|---------------------------------------------------------------------------|
G|-------4--5--6--------2--4--5-5--------------------------------------------|
D|--4-5--4--5--6--5--2--2--4--5-5--------------------------------------------|
A|--4-5--2--3--4--5--2--0--2--3-3--------------------------------------------|
E|--2-3-----------3--0-------------------------------------------------------|

"the rich stayed rich, the poor got even poorer"
e|---------------------------------------------------------------------------|
B|---------------------------------------------------------------------------|
G|-----------4-4-4-4--5-5-5-5--6-6-6-6--------------------2-2--4-4--5-5-5--7-|
D|--5-5-5-5--4-4-4-4--5-5-5-5--6-6-6-6--5-5-5-5--2-2-2-2--2-2--4-4--5-5-5--7-|
A|--5-5-5-5--2-2-2-2--3-3-3-3--4-4-4-4--5-5-5-5--2-2-2-2--0-0--2-2--3-3-3--5-|
E|--3-3-3-3-----------------------------3-3-3-3--0-0-0-0---------------------|


| /  slide up
| \  slide down
| h  hammer-on
| p  pull-off
| ~  vibrato
| +  harmonic
| x  Mute note
===============================================================================
Добавлено: 13.07.2013
Другие материалы по этой песне:
  • Аккорды и текст

Страница создана 13.07.2013
http://primanota.ru/catch-22/prologue-chords.htm
Привет, Гость.
Предлагаем пройти революционный курс по гитаре.
Подарок от PrimaNota.Ru, забирай!