PrimaNota.ru - самый крупный в мире бесплатный архив песенных текстов, аккордов, табулатур и нот


Catch 22 - Point The Blame - текст песни, таба, видео

Регистрация Запомнить меня
Войти через:  Facebook Google Twitter Vk Yandex Mail.ru

Catch 22 - Point The Blame - текст песни, таба, видео

Печатать
Просмотров: 117
Авторы музыки: Catch 22
Авторы текста: Jeff Davidson, Ryan Eldred
Catch 22 - Point The Blame


  Intro
                PM|   PM|   PM|   PM|   PM|   PM|   PM|    PM|      PM|
|---------------------------------------------------------------------------|
|---------------------------------------------------------------------------|
|---------------------------------------------------------------------------|
|-9--9-12-14--9-----9-----9-----9-----9-----9-----9-----9-------12-------12-|
|-9--9-12-14--9-----9-----9-----9-----9-----9-----9-----9-------12-------12-|
|-7--7-10-12--7-7-7-7-7-7-7-7-7-7-7-7-7-7-7-7-7-7-7-7-7-7-10-10-10-10-10-10-|


   PM|      PM|     PM|   PM|   PM|   PM|   PM|
|-----------------------------------------------------|
|-----------------------------------------------------|
|-----------------------------------------------------|
|-------14-------14-----9-----9-----9-----9-----9-----|
|-------14-------14-----9-----9-----9-----9-----9-----|
|-12-12-12-12-12-12-7-7-7-7-7-7-7-7-7-7-7-7-7-7-7-----|


Pre-verse

|-7-x-x-7-7-x-7-x-7-x-7-7-7--7-x-x-7-7-x-7-x--7-x--9--9--9-7-x-x--7-7-x-7-x-7-x-7--7-7--|
|-7-x-x-7-7-x-9-x-9-x-9-9-9--7-x-x-7-7-x-9-x--9-x-11-11-11-7-x-x--7-7-x-9-x-9-x-9--9-9--|
|-8-x-x-8-8-x-9-x-9-x-9-9-9--8-x-x-8-8-x-9-x--9-x-11-11-11-8-x-x--8-8-x-9-x-9-x-9--9-9--|
|-9-x-x-9-9-x-9-x-9-x-9-9-9--9-x-x-9-9-x-9-x--9-x-11-11-11-9-x-x--9-9-x-9-x-9-x-9--9-9--|
|-9-x-x-9-9-x-7-x-7-x-7-7-7--9-x-x-9-9-x-7-x--7-x--9--9--9-9-x-x--9-9-x-7-x-7-x-7--7-7--|
|-7-x-x-7-7------------------7-x-x-7-7---------------------7-x-x--7-7-------------------|


|-7-7-7-7-x-7-x-7-7-|
|-7-9-7-9-x-9-x-9-7-|
|-8-9-8-9-x-9-x-9-8-|
|-9-9-9-9-x-9-x-9-9-|
|-9-7-9-7-x-7-x-7-9-|
|-7---7-----------7-|


Verse

|-7-7-x-7-x-7-7-7-x-7-x-7-7-7-x-7-x-7--9--9-x--9-x---9-|
|-7-7-x-7-x-7-9-9-x-9-x-9-7-7-x-7-x-7-11-11-x-11-x--11-|
|-8-8-x-8-x-8-9-9-x-9-x-9-8-8-x-8-x-8-11-11-x-11-x--11-|
|-9-9-x-9-x-9-9-9-x-9-x-9-9-9-x-9-x-9-11-11-x-11-x--11-|
|-9-9-x-9-x-9-7-7-x-7-x-7-9-9-x-9-x-9--9--9-x--9-x---9-|
|-7-7-x-7-x-7-------------7-7-x-7-x-7------------------|

|-7-7-x-7-x-7-7-7-x-7-x-7--9--9-x--9-x--9--9--9-x--9-x--9-7-x-x-7-7-7-x-7-x-7--7-7-|
|-7-7-x-7-x-7-9-9-x-9-x-9--9--9-x--9-x--9-11-11-x-11-x-11-9-x-x-9-9-7-x-7-x-7--7-7-|
|-8-8-x-8-x-8-9-9-x-9-x-9-10-10-x-10-x-10-11-11-x-11-x-11-9-x-x-9-9-8-x-8-x-8--8-8-|
|-9-9-x-9-x-9-9-9-x-9-x-9-11-11-x-11-x-11-11-11-x-11-x-11-9-x-x-9-9-9-x-9-x-9--9-9-|
|-9-9-x-9-x-9-7-7-x-7-x-7-11-11-x-11-x-11--9--9-x--9-x--9-7-x-x-7-7-9-x-9-x-9--9-9-|
|-7-7-x-7-x-7--------------9--9-x--9-x--9---------------------------7-x-7-x-7--7-7-|


|-7-x-x-7-7-7-x-7-x-7-7-7--7-x-x-7-7-7-x-7--x-7-7-7-------2-0h2p0-0--|
|-9-x-x-9-9-7-x-7-x-7-7-7--9-x-x-9-9-7-x-7--x-7-7-7-----2------------|
|-9-x-x-9-9-8-x-8-x-8-8-8--9-x-x-9-9-8-x-8--x-8-8-8---3--------------|
|-9-x-x-9-9-9-x-9-x-9-9-9--9-x-x-9-9-9-x-9--x-9-9-9-4----------------|
|-7-x-x-7-7-9-x-9-x-9-9-9--7-x-x-7-7-9-x-9--x-9-9-9------------------|
|-----------7-x-7-x-7-7-7------------7-x-7--x-7-7-7------------------|


|---------|
|-4h5p4-0-|
|---------|
|---------|
|---------|
|---------|

Chorus
|--------------------------------------------------------------------------------|
|--------------------------------------------------------------------------------|
|-----------9-x-9-x-9-9--------------11-x-11-x-11-11------------9-x-9--x-9-9-----|
|-9-x-x-9-9-9-x-9-x-9-9-11-x-x-11-11-11-x-11-x-11-11--9-x-x-9-9-9-x-9--x-9-9-11\-|
|-9-x-x-9-9-7-x-7-x-7-7-11-x-x-11-11--9-x--9-x--9--9--9-x-x-9-9-7-x-7--x-7-7-11--|
|-7-x-x-7-7--------------9-x-x--9--9------------------7-x-x-7-7---------------9--|


Post Chorus                                    3x
||---------------------------------------------||
||o-------------------------------------------o||
||--------------------------------11-11-11-11--||
||--------------------------------11-11-11-11--||
||o--------------------------------9--9--9--9-o||
||--7-7-10-11-7-7-10-11-7-7-10-11--------------||


|------------------------------------------------|-|
|------------------------------------------------|-|
|------------------------------------------------|-|
|-11-11-11-11-11-11-11-11-11-11-11-11--x-x-x-x-x-|-|
|-11-11-11-11-11-11-11-11-11-11-11-11--x-x-x-x-x-|-|
|--9--9--9--9--9--9--9--9--9--9--9--9--x-x-x-x-x-|-|


Bridge                                              2x
||--7-x-7-x-7-7-x-7-7-7-10-x-10-x-10-10-x-10-10-10--||
||o-7-x-7-x-7-7-x-7-7-7-10-x-10-x-10-10-x-10-10-10-o||
||--8-x-8-x-8-8-x-8-8-8-11-x-11-x-11-11-x-11-11-11--||
||--9-x-9-x-9-9-x-9-9-9-12-x-12-x-12-12-x-12-12-12--||
||o-9-x-9-x-9-9-x-9-9-9-12-x-12-x-12-12-x-12-12-12-o||
||--7-x-7-x-7-7-x-7-7-7-10-x-10-x-10-10-x-10-10-10--||


 Solo
|------------------------------------|
|---------------------------------7--|
|-9b10-9b10-9r-7-------9-7------7----|
|----------------9-7h9-----9b10------|
|------------------------------------|
|------------------------------------|


|--------7---10p9p7--------10p9p7--------------------------------------------------------|
|------7---7--------10p9p7--------10p9p7-9p7-9p7-9p7-9b10==9-----------------------------|
|-9b10-----------------------------------------------9-----9r7h9p7-----------------------|
|------------------------------------------------------------------9--7h9p7--------------|
|---------------------------------------------------------------------------9-7h9p7------|
|-----------------------------------------------------------------------------------10-7-|
Добавлено: 22.10.2013
Другие материалы по этой песне:
  • Аккорды и текст

Страница создана 03.06.2012
http://primanota.ru/catch-22/point-the-blame-chords.htm
Привет, Гость.
Предлагаем пройти революционный курс по гитаре.
Подарок от PrimaNota.Ru, забирай!