PrimaNota.ru - самый крупный в мире бесплатный архив песенных текстов, аккордов, табулатур и нот


Catch 22 - Opportunity - таба, видео

Регистрация Запомнить меня
Войти через:  Facebook Google Twitter Vk Yandex Mail.ru

Catch 22 - Opportunity - таба, видео

Печатать
Просмотров: 117
-------------------------------------------------------------------------------
			      THE OPPORTUNITY - Catch 22
-------------------------------------------------------------------------------
Tabbed by: Jon Brown
Email: familyguyantiflag@yahoo.com

Tuning: Standard

Intro:

e|-----------------3-3-------3-3-------3-3-----------------------------------|
B|-----------------4-4-------4-4-------4-4-----------------------------------|
G|------------3-3--5-5--3-3--5-5--3-3--5-5--3-3-3----------------------------|
D|------------3-3--5-5--3-3--5-5--3-3--5-5--3-3-3----------------------------|
A|-----1---1--1-1--3-3--1-1--3-3--1-1--3-3--1-1-1----------------------------|
E|-1-3---3-------------------------------------------------------------------|


Verse:

e|-----------------3-3--5-5--3-3-------3-3-----------------------------------|
B|-----------------4-4--6-6--4-4-------4-4-----------------------------------|
G|------------3-3--5-5--7-7--5-5--3-3--5-5-----------------------------------|
D|------------3-3--5-5--7-7--5-5--3-3--5-5--3-3-3----------------------------|
A|-----1---1--1-1--3-3--5-5--3-3--1-1--3-3--3-3-3----------------------------|
E|-1-3---3----------------------------------1-1-1----------------------------|


e|-----------------3-3--5-5--3-3--3-3--5-5-----------------------------------|
B|-----------------4-4--6-6--4-4--3-3--6-6-----------------------------------|
G|------------3-3--5-5--7-7--5-5--3-3--7-7----8------------------------------|
D|------------3-3--5-5--7-7--5-5--5-5--7-7----8--8--3------------------------|
A|-----1---1--1-1--3-3--5-5--3-3--5-5--5-5----6--8--3------------------------|
E|-1-3---3------------------------3-3------------6--1------------------------|

Chorus:

e|---------------------------------------------------------------------------|
B|---------------------------------------------------------------------------|
G|---------------------------------------------7--8-8-8-8--------------------|
D|----------5-5-5--3--5-5-5--3--8-8-8-8-8-8-8--7--8-8-8-8--8-8-8-8--3-3-3-3--|
A|----------5-5-5--3--5-5-5--3--8-8-8-8-8-8-8--5--6-6-6-6--8-8-8-8--3-3-3-3--|
E|-1-3-1-3--3-3-3--1--3-3-3--1--6-6-6-6-6-6-6--------------6-6-6-6--1-1-1-1--|


Ending:

e|---------------------------------------------------------------------------|
B|---------------------------------------------------------------------------|
G|---------------------------------------------------------------------------|
D|--5-5-5-5-5--3-------------------------------------------------------------|
A|--5-5-5-5-5--3-------------------------------------------------------------|
E|--3-3-3-3-3--1-------------------------------------------------------------|



| /  slide up
| \  slide down
| h  hammer-on
| p  pull-off
| ~  vibrato
| +  harmonic
| x  Mute note
===============================================================================
Добавлено: 10.06.2013
Другие материалы по этой песне:
  • Аккорды и текст

Страница создана 10.06.2013
http://primanota.ru/catch-22/opportunity-chords.htm
Привет, Гость.
Предлагаем пройти революционный курс по гитаре.
Подарок от PrimaNota.Ru, забирай!