PrimaNota.ru - самый крупный в мире бесплатный архив песенных текстов, аккордов, табулатур и нот


Catch 22 - Motown Cinderella - текст песни, таба, видео

Регистрация Запомнить меня
Войти через:  Facebook Google Twitter Vk Yandex Mail.ru

Catch 22 - Motown Cinderella - текст песни, таба, видео

Печатать
Просмотров: 118
Уроки эстрадного вокала в Санкт-Петербурге
-------------------------------------------------------------------------------
			     MOTOWN CINDERELLA - Catch 22
-------------------------------------------------------------------------------
Tabbed by: Jon Face
Email: familyguyantiflag@yahoo.com

Tuning: standard

INTRO x2:

e|---------------------------------------------------------------------------|
B|---------------------------------------------------------------------------|
G|--5-5-5-5-----------7-7-7-7------------5-5-5-5-----------7-7-7-7-----------|
D|--5-5-5-5--5-5-5-5--7-7-7-7--7-7--5-5--5-5-5-5--5-5-5-5--7-7-7-7--3-3-4-5--|
A|--3-3-3-3--5-5-5-5--5-5-5-5--7-7--5-5--3-3-3-3--5-5-5-5--5-5-5-5--3-3-4-5--|
E|-----------3-3-3-3-----------5-5--3-3-----------3-3-3-3-----------1-1-2-3--|

VERSE:

e|--0-0--0-0--0-0-----------1-1-1-1--1-1-1-1---------------------------------|
B|--1-1--1-1--1-1-----------1-1-1-1--1-1-1-1---------------------------------|
G|--0-0--0-0--2-2--5-5-5-5--2-2-2-2--1-1-1-1--5-5-5-5------------------------|
D|--2-2--2-2--2-2--5-5-5-5--3-3-3-3--3-3-3-3--5-5-5-5--3-3-4-5---------------|
A|--3-3--3-3--0-0--3-3-3-3--3-3-3-3--3-3-3-3--3-3-3-3--3-3-4-5---------------|
E|-------4-4----------------1-1-1-1--1-1-1-1-----------1-1-2-3---------------|

e|--0-0--0-0--0-0-----------1-1-1-1--1-1-1-1---------------------------------|
B|--1-1--1-1--1-1-----------1-1-1-1--1-1-1-1---------------------------------|
G|--0-0--0-0--2-2--5-5-5-5--2-2-2-2--1-1-1-1--5-5-5-5-5-5-5-5----------------|
D|--2-2--2-2--2-2--5-5-5-5--3-3-3-3--3-3-3-3--5-5-5-5-5-5-5-5----------------|
A|--3-3--3-3--0-0--3-3-3-3--3-3-3-3--3-3-3-3--3-3-3-3-3-3-3-3----------------|
E|-------4-4----------------1-1-1-1--1-1-1-1---------------------------------|

e|--1-1-1-1--1-1-1-1---------------------------------------------------------|
B|--1-1-1-1--1-1-1-1---------------------------------------------------------|
G|--2-2-2-2--1-1-1-1--5-5-5-5------------------------------------------------|
D|--3-3-3-3--3-3-3-3--5-5-5-5--5-5-5-5-5-5-5-5-------------------------------|
A|--3-3-3-3--3-3-3-3--3-3-3-3--5-5-5-5-5-5-5-5-------------------------------|
E|--1-1-1-1--1-1-1-1-----------3-3-3-3-3-3-3-3-------------------------------|

CHORUS x2:

e|---------------------------------------------------------------------------|
B|---------------------------------------------------------------------------|
G|--5-5-5-5--9-9-9-9-------------10-9-10-10----------------------------------|
D|--5-5-5-5--9-9-9-9--7-7--5-5---10-9-10-10----------------------------------|
A|--3-3-3-3--7-7-7-7--7-7--5-5---8--7-8--8-----------------------------------|
E|--------------------5-5--3-3-----------------------------------------------|

INTRO x2.

VERSE:


e|--0-0--0-0--0-0-----------1-1-1-1--1-1-1-1---------------------------------|
B|--1-1--1-1--1-1-----------1-1-1-1--1-1-1-1---------------------------------|
G|--0-0--0-0--2-2--5-5-5-5--2-2-2-2--1-1-1-1--5-5-5-5-5-5-5-5----------------|
D|--2-2--2-2--2-2--5-5-5-5--3-3-3-3--3-3-3-3--5-5-5-5-5-5-5-5----------------|
A|--3-3--3-3--0-0--3-3-3-3--3-3-3-3--3-3-3-3--3-3-3-3-3-3-3-3----------------|
E|-------4-4----------------1-1-1-1--1-1-1-1---------------------------------|

e|--1-1-1-1--1-1-1-1---------------------------------------------------------|
B|--1-1-1-1--1-1-1-1---------------------------------------------------------|
G|--2-2-2-2--1-1-1-1--5-5-5-5------------------------------------------------|
D|--3-3-3-3--3-3-3-3--5-5-5-5--5-5-5-5-5-5-5-5-------------------------------|
A|--3-3-3-3--3-3-3-3--3-3-3-3--5-5-5-5-5-5-5-5-------------------------------|
E|--1-1-1-1--1-1-1-1-----------3-3-3-3-3-3-3-3-------------------------------|

PRE-CHORUS:

e|---------------------------------------------------------------------------|
B|---------------------------------------------------------------------------|
G|-----------7-7-7-7--9-9-9-9--14-14-14-14--7-7-7-7--------------------------|
D|--7-7-7-7--7-7-7-7--9-9-9-9--14-14-14-14--7-7-7-7--7-7-7-7--3-3-3-4-5-5-5-5|
A|--7-7-7-7--5-5-5-5--7-7-7-7--12-12-12-12--5-5-5-5--7-7-7-7--3-3-3-4-5-5-5-5|
E|--5-5-5-5------------------------------------------5-5-5-5--1-1-1-2-3-3-3-3|

CHORUS x2

POST-CHORUS (palm-mute):

e|---------------------------------------------------------------------------|
B|---------------------------------------------------------------------------|
G|-------------5-5-5-5-5-5-5-------------2-2-2---------7-7-7-7-7-7-----------|
D|-------------5-5-5-5-5-5-5--2-2-2-2-2--2-2-2--5-5-5--7-7-7-7-7-7-----------|
A|--3-3-3-3-3--3-3-3-3-3-3-3--2-2-2-2-2--0-0-0--5-5-5--5-5-5-5-5-5-----------|
E|--1-1-1-1-1-----------------0-0-0-0-0---------3-3-3------------------------|

FINGER-PICKING:

e|---------------------------------------------------------------------------|
B|---------------------------------------------------------------------------|
G|---------------------------------------------------------------------------|
D|--5-4-3-5-2----------------------------------------------------------------|
A|----------------3----------------------------------------------------------|
E|------------3-5------------------------------------------------------------|

SWING BREAK-DOWN x2:

e|--0-0--0-0--0-0-----------1-1-1-1--1-1-1-1---------------------------------|
B|--1-1--1-1--1-1-----------1-1-1-1--1-1-1-1---------------------------------|
G|--0-0--0-0--2-2--5-5-5-5--2-2-2-2--1-1-1-1--5-5-5-5------------------------|
D|--2-2--2-2--2-2--5-5-5-5--3-3-3-3--3-3-3-3--5-5-5-5--3-3-4-5---------------|
A|--3-3--3-3--0-0--3-3-3-3--3-3-3-3--3-3-3-3--3-3-3-3--3-3-4-5---------------|
E|-------4-4----------------1-1-1-1--1-1-1-1-----------1-1-2-3---------------|

OUTRO x4:

e|---------------------------------------------------------------------------|
B|---------------------------------------------------------------------------|
G|-------------------5-5-5-5-5-5-5-5-----------------------------------------|
D|-3-3-3-3--5-5-5-5--5-5-5-5-5-5-5-5-----------------------------------------|
A|-3-3-3-3--5-5-5-5--3-3-3-3-3-3-3-3-----------------------------------------|
E|-1-1-1-1--3-3-3-3----------------------------------------------------------|

END ON C.

===============================================================================
Добавлено: 30.08.2013
Другие материалы по этой песне:
  • Аккорды и текст

Страница создана 19.05.2012
http://primanota.ru/catch-22/motown-cinderella-chords.htm
Привет, Гость.
Предлагаем пройти революционный курс по гитаре.
Подарок от PrimaNota.Ru, забирай!