PrimaNota.ru - самый крупный в мире бесплатный архив песенных текстов, аккордов, табулатур и нот


Catch 22 - Lamont's Lament - таба, видео

Регистрация Запомнить меня
Войти через:  Facebook Google Twitter Vk Yandex Mail.ru

Catch 22 - Lamont's Lament - таба, видео

Печатать
Просмотров: 100
-------------------------------------------------------------------------------
			     LAMONT'S LAMENT - Catch 22
-------------------------------------------------------------------------------
Tabbed by: Jon Face
Email: familyguyantiflag@yahoo.com

Tuning: Standard Tuning

Note: Lamont's Lament is often confused with the song "Chasing the Moon" 
because the CD was mis-labeled.  To avoid confusion, this tab is for the 
instrumental song at the very end of the cd, track 14.

Riff A

e|---------------------------------------------------------------------------|
B|---------------------------------------------------------------------------|
G|--7-7-7-7-7-7-7-7-7--10-10-10-10-10-10-10-10--5-5-5-5-5-5-5-5--------------|
D|--7-7-7-7-7-7-7-7-7--10-10-10-10-10-10-10-10--5-5-5-5-5-5-5-5--7-7-7-7-----|
A|--5-5-5-5-5-5-5-5-5--8--8--8--8--8--8--8--8---3-3-3-3-3-3-3-3--7-7-7-7-----|
E|---------------------------------------------------------------5-5-5-5-----|

e|---------------------------------------------------------------------------|
B|---------------------------------------------------------------------------|
G|--7-7-7-7-7-7-7-7-7--5-5-5-5-5-5-5-5---------------------------------------|
D|--7-7-7-7-7-7-7-7-7--5-5-5-5-5-5-5-5--7-7-7-7-7-7-7-7-7-7-7-7-7-7-7-7------|
A|--5-5-5-5-5-5-5-5-5--3-3-3-3-3-3-3-3--7-7-7-7-7-7-7-7-7-7-7-7-7-7-7-7------|
E|--------------------------------------5-5-5-5-5-5-5-5-5-5-5-5-5-5-5-5------|

Riff B

e|---------------------------------------------------------------------------|
B|---------------------------------------------------------------------------|
G|--3-3-3-3-------7-7-7-7---3-3-3-3-------5-5-5-5---3-3-3-3-------5-5-5-5----|
D|--3-3-3-3--3-3--7-7-7-7---3-3-3-3--3-3--5-5-5-5---3-3-3-3--3-3--5-5-5-5----|
A|--1-1-1-1--3-3--5-5-5-5---1-1-1-1--3-3--3-3-3-3---1-1-1-1--3-3--3-3-3-3----|
E|-----------1-1---------------------1-1---------------------1-1-------------|


e|---------------------------------------------------------------------------|
B|---------------------------------------------------------------------------|
G|--7------------------------------------------------------------------------|
D|--7--7-7-7--8--10--8-8-8--5-5-5-5--8-7-------------------------------------|
A|--5--7-7-7--8--10--8-8-8--5-5-5-5--8-7-------------------------------------|
E|-----5-5-5--6--8---6-6-6--3-3-3-3--6-5--|______ Pick Slide_______|---------|

Riff C

e|---------------------------------------------------------------------------|
B|---------------------------------------------------------------------------|
G|--7--5--3--2--7-7-7-7--5-5-5-5--2-2-2-2--3-3-3-3--7-7-7-7--5-5-5-5--2-2-2-2|
D|--7--5--3--2--7-7-7-7--5-5-5-5--2-2-2-2--3-3-3-3--7-7-7-7--5-5-5-5--2-2-2-2|
A|--5--3--1--0--5-5-5-5--3-3-3-3--0-0-0-0--1-1-1-1--5-5-5-5--3-3-3-3--0-0-0-0|
E|---------------------------------------------------------------------------|

e|---------------------------------------------------------------------------|
B|---------------------------------------------------------------------------|
G|--3-3-3-3--7-7-7-7-----------7---------------------------------------------|
D|--3-3-3-3--7-7-7-7--7-7-7-7--7---------------------------------------------|
A|--1-1-1-1--5-5-5-5--7-7-7-7--5--|_______Hold Note_______|------------------|
E|--------------------5-5-5-5------------------------------------------------|

Riff D - ska strumming:

e|---------------------------------------------------------------------------|
B|---------------------------------------------------------------------------|
G|--7-7-7-7------------------------------------------------------------------|
D|--7-7-7-7--7-7-7-7--8-8-8-8--5-5-7-7---------------------------------------|
A|--5-5-5-5--7-7-7-7--8-8-8-8--5-5-7-7---------------------------------------|
E|-----------5-5-5-5--6-6-6-6--3-3-5-5---------------------------------------|

Repeat Riff C and Riff A


| /  slide up
| \  slide down
| h  hammer-on
| p  pull-off
| ~  vibrato
| +  harmonic
| x  Mute note
===============================================================================
Добавлено: 15.11.2013
Другие материалы по этой песне:
  • Аккорды и текст

Страница создана 15.11.2013
http://primanota.ru/catch-22/lamonts-lament-chords.htm
Привет, Гость.
Предлагаем пройти революционный курс по гитаре.
Подарок от PrimaNota.Ru, забирай!