PrimaNota.ru - самый крупный в мире бесплатный архив песенных текстов, аккордов, табулатур и нот


Catch 22 - Good Times - текст песни, бас-таба, видео

Регистрация Запомнить меня
Войти через:  Facebook Google Twitter Vk Yandex Mail.ru

Catch 22 - Good Times - текст песни, бас-таба, видео

Печатать
Просмотров: 113
Song- Good times
Artist- Catch 22
Album- Dinosaur sounds
Tabbed by- Joe

verse
G---------------------------------------|
D---------------------------------------|
A------5-5------7/9-7---------------5-5-|
E-2/5------5-7--------2/5--5-5--2/5-----|x2

Chorus
G--------------------------------------------------------------|
D--------------------------------------------------------7-5-7-|
A-5-5-----5-7/9----------5-5-5---------------------5-5-5-------|
E-----5-7-------9-7-7-5-7-7----5-5-3-3-0-3-5-5-2-5-------------|x1

verse
G------------------------------------------|
D------------------------------------------|
A------5-5------7/9-7------------------5-5-|
E-2/5------5-7--------2/5--5-5--2/5--------|x4

Pre-Chorus
G-----------------|
D-----5-7-----5-7-|
A-7/9----7/9------|
E-----------------|x4

Chorus
G--------------------------------------------------------------|
D--------------------------------------------------------7-5-7-|
A-5-5-----5-7/9----------5-5-5---------------------5-5-5-------|
E-----5-7-------9-7-7-5-7-7----5-5-3-3-0-3-5-5-2-5-------------|x2

Verse
G------------------------------------------|
D------------------------------------------|
A------5-5------7/9-7------------------5-5-|
E-2/5------5-7--------2/5--5-5--2/5--------|x4

Chorus
G--------------------------------------------------------------|
D--------------------------------------------------------7-5-7-|
A-5-5-----5-7/9----------5-5-5---------------------5-5-5-------|
E-----5-7-------9-7-7-5-7-7----5-5-3-3-0-3-5-5-2-5-------------|x2

Pre-Chorus
G-----------------|
D-----5-7-----5-7-|
A-7/9----7/9------|
E-----------------|x4

Chorus
G--------------------------------------------------------------|
D--------------------------------------------------------7-5-7-|
A-5-5-----5-7/9----------5-5-5---------------------5-5-5-------|
E-----5-7-------9-7-7-5-7-7----5-5-3-3-0-3-5-5-2-5-------------|x2


Verse
G------------------------------------------|
D------------------------------------------|
A------5-5------7/9-7------------------5-5-|
E-2/5------5-7--------2/5--5-5--2/5--------|x2

G------------------------|
D------------------------|
A----5-5-----7/9-7-5-6-7-|
E-2/5----5-7-------------|

Outro(im not sure about this feel free to screw with it)
G-------------------------------------------------------------------|
D-------------------------------------------------------------------|
A-------------------------------------------------------------------|
E-0-0-0-0-0(some number of times)-14-14-14-14(some number of times)-|x2


Thats about it..

To contact me IM me at awfulwrawker41
Добавлено: 27.12.2013
Другие материалы по этой песне:
  • Аккорды и текст

Страница создана 26.08.2013
http://primanota.ru/catch-22/good-times-chords.htm
Привет, Гость.
Предлагаем пройти революционный курс по гитаре.
Подарок от PrimaNota.Ru, забирай!