PrimaNota.ru - самый крупный в мире бесплатный архив песенных текстов, аккордов, табулатур и нот


Catch 22 - Chasing The Moon - текст песни, таба, видео

Регистрация Запомнить меня
Войти через:  Facebook Google Twitter Vk Yandex Mail.ru

Catch 22 - Chasing The Moon - текст песни, таба, видео

Печатать
Просмотров: 106
------------------------------------------------------------------------------
			     CHASING THE MOON - CATCH 22
------------------------------------------------------------------------------
Tabbed by: Jon Brown
Email: familyguyantiflag@yahoo.com

Tuning: Standard

Intro:

e|---0--------3--------0--------1--------0--------1--------------0-3-0-------|
B|---1--------0--------1--------0--------1--------0--------------1-0-1-------|
G|---0--------0--------0--------0--------0--------0--------------0-0-0-------|
D|---2--------0--------2--------0--------2--------0--------3-2-0-2-0-2-------|
A|-3-3--------2--0-2-3-3--------2--0-2-3-3--------2--0-2---------3-2-3-------|
E|------0-1-3-3-----------0-1-3-3-----------0-1-3-3----------------3---------|

Verse:

e|-----------------------|   |-----------------------------------------------|
B|-----------------------|   |-----------------------------------------------|
G|------5----------------|   |-----2--5------------5---5---------------------|
D|----------------5------|x3 |--3--------------0---5-5-5---------------------|
A|--3-3--------------0-2-|   |--------------2------3-5-3---------------------|
E|--------0-1-3-3--------|   |-----------3-----------3-----------------------|

Chorus:

"Hey! Drink it all away!"
e|---------------------------------------------------------------------------|
B|---------------------------------------------------------------------------|
G|-5-5-5-5------------5-5-5-5------------------------------------------------|
D|-5-5-5-5------------5-5-5-5--3-3--5-5--------------------------------------|
A|-3-3-3-3--3-3--5-5--3-3-3-3--3-3--5-5--------------------------------------|
E|----------1-1--3-3-----------1-1--3-3--------------------------------------|


"Dance by the light of the stars in the sky":
e|---------------------------------------------------------------------------|
B|---------------------------------------------------------------------------|
G|----------------2---------------5---5--------------------------------------|
D|-3-3--5-5--2-2--2--5--3-3--5-5--5-5-5--------------------------------------|
A|-3-3--5-5--2-2--0--5--3-3--5-5--3-5-3--------------------------------------|
E|-1-1--3-3--0-0-----3--1-1--3-3----3----------------------------------------|
             x x

Bridge: 

"everyone feels the need to belong"
e|---------------------------------------------------------------------------|
B|---------------------------------------------------------------------------|
G|-----------------------------2-2-2-2--7-7-7-7------------------------------|
D|--7-7-7-7--5-5-5-5--2-2-2-2--2-2-2-2--7-7-7-7--7-7-7-7--5-5-5-5-5-5-5-5----|
A|--7-7-7-7--5-5-5-5--2-2-2-2--0-0-0-0--5-5-5-5--7-7-7-7--5-5-5-5-5-5-5-5----|
E|--5-5-5-5--3-3-3-3--0-0-0-0--------------------5-5-5-5--3-3-3-3-3-3-3-3----|
                                                          x x x x 
Repeat Chorus.  End on C.


| /  slide up
| \  slide down
| h  hammer-on
| p  pull-off
| ~  vibrato
| +  harmonic
| x  Mute note
===============================================================================
Добавлено: 12.07.2013
Другие материалы по этой песне:
  • Аккорды и текст

Страница создана 06.06.2012
http://primanota.ru/catch-22/chasing-the-moon-chords.htm
Привет, Гость.
Предлагаем пройти революционный курс по гитаре.
Подарок от PrimaNota.Ru, забирай!