PrimaNota.ru - самый крупный в мире бесплатный архив песенных текстов, аккордов, табулатур и нот


Catarrhal Noise - Me So Caga Dosso - таба, видео

Регистрация Запомнить меня
Войти через:  Facebook Google Twitter Vk Yandex Mail.ru

Catarrhal Noise - Me So Caga Dosso - таба, видео

Печатать
Просмотров: 72
Title: Me So' Cagà Dosso
Band: Catarrhal Noise
Album: Turbo America

I think is 90% correct.

Intro and Riff
e|-------------------------------------------------------|
B|-------------------------------------------------------|
G|-------------------------------------------------------|
D|----------------------------3h4h5----------------------|
A|-------------------------------------0-0---0-----------|
E|-----0-0--14/0-----3h4h5----------------------0-0-3-0--|
                                       P.M.------------|

e|--------------------------------------------------------------------------|
B|--------------------------------------------------------------------------|
G|--------------------------------------------------------------------------|
D|----------3h4h5-----------------------------------------------------------|
A|-------------------0-0-----5b(6)r5-3-5-3----------------------------------|
E|---3h4h5------------------------------------------------------------------|
                     P.M|


Chorus
e|---------------------------|
B|---------------------------|
G|---------------------------|
D|---------------------------|
A|--7---7-7-7--7-7-7--7---7--|
E|--5---5-5-5--5-5-5--5---5--| x3
P.M.-----------------------|



e|--------------------|
B|--------------------|
G|--------------------|
D|----3-4-5-----------|
A|--------------------|
E|--------------------|
      Semi harm.

e|------------------------------------|
B|------------------------------------|
G|-------------------x--x--x-x--x-----|
D|-------------------x--x--x-x--x-----|
A|-------------------x--x--x-x--x-----|
E|------3-4-5--3-4-5------------------|x4 (I think)



Riff

Chorus

Bridge
e|-----------------------------------|
B|--------------------------7-7------|
G|------6---6-6---6---6-6---7-7------|
D|------7---7-7---7---7-7---7-7------|
A|------7---7-7---7---7-7---5-5------|
E|------5---5-5---5---5-5------------|x I don't know how many times




Inviate correzioni a nonnodacciaio@gmail.com e commentate!
Добавлено: 18.10.2013
Другие материалы по этой песне:
  • Аккорды и текст

Страница создана 18.10.2013
http://primanota.ru/catarrhal-noise/me-so-caga-dosso-chords.htm
Привет, Гость.
Предлагаем пройти революционный курс по гитаре.
Подарок от PrimaNota.Ru, забирай!