PrimaNota.ru - самый крупный в мире бесплатный архив песенных текстов, аккордов, табулатур и нот


Catarrhal Noise - Me So Cag - таба, видео

Регистрация Запомнить меня
Войти через:  Facebook Google Twitter Vk Yandex Mail.ru

Catarrhal Noise - Me So Cag - таба, видео

Печатать
Просмотров: 123
Titolo: Me So' Cagà Dosso
Artista: Catarrhal Noise
Album: Turbo America

Secondo me la canzone fa così… poi …fate voi.

Intro e Riff
e|---------------------------------------------------------------------------|
B|---------------------------------------------------------------------------|
G|---------------------------------------------------------------------------|
D|--------------------------------0---0--------------------------------------|
A|---------------------------------------------------------------------------|
E|--14/0---3---5------------------------(0)---(3)---(5)---(3)----------------|
,

e|---------------------------------------------------------------------------|
B|---------------------------------------------------------------------------|
G|--------------------0h1h2--------------------------------------------------|
D|--------------------------------0---0---2---0------------------------------|
A|---------------------------------------------------3---0-------------------|
E|--0---3---5------------------------------------------------3---0-----------|

e|---------------------------------------------------------------------------|
B|---------------------------------------------------------------------------|
G|--------------------0h1h2--------------------------------------------------|
D|--------------------------------0---0--------------------------------------|
A|---------------------------------------------------------------------------|
E|--0---3---5----------------------------(0)---(3)---(5)---(3)---------------|

e|---------------------------------------------------------------------------|
B|---------------------------------------------------------------------------|
G|--------------------0h1h2--------------------------------------------------|
D|--------------------------------0---0---2---0------------------------------|
A|---------------------------------------------------3---0-------------------|
E|--0---3---5------------------------------------------------3---0-----------|

Chorus
e|---------------------------------------------------------------------------|
B|---------------------------------------------------------------------------|
G|---------------------------------------------------------------------------|
D|---------------------------------------------------------------------------|
A|---------------------------------------------------------------------------|
E|-5---5-5-5---5-5-5---5-5--5------------------------------------------------| x3
,    .    .  .  .      .  .  .     .  .   . 
e|---------------------------------------------------------------------------|
B|---------------------------------------------------------------------------|
G|--------------------------------------------2--2---------------------------|
D|---------------------------------------------------------------------------|
A|------------------------------0---0---0------------------------------------|
E|--0---3---5---0---3---5----------------------------------------------------|x4

Riff

Chorus

Bridge
e|----------------------------------------------------------------------------|
B|--2------2--------2--2--2-----3------2--------------------------------------|
G|--2------2--------2--2--2-----2------2--------------------------------------|
D|--2------2--------2--2--2-----2------2--------------------------------------|
A|----------------------------------------------------------------------------|
E|----------------------------------------------------------------------------|



Riff

Bon  Questo è Tutto Divertive e Cagheve Dosso =)
By Hug Da Casal
Enjoy Yourself
Добавлено: 02.06.2012
Другие материалы по этой песне:
  • Аккорды и текст

Страница создана 02.06.2012
http://primanota.ru/catarrhal-noise/me-so-cag-chords.htm
Привет, Гость.
Предлагаем пройти революционный курс по гитаре.
Подарок от PrimaNota.Ru, забирай!