PrimaNota.ru - самый крупный в мире бесплатный архив песенных текстов, аккордов, табулатур и нот


Catalepsy - Trust - таба, видео

Регистрация Запомнить меня
Войти через:  Facebook Google Twitter Vk Yandex Mail.ru

Catalepsy - Trust - таба, видео

Печатать
Просмотров: 139
Band: Catalepsy
Album: Iniquity/Godless EP
Song: Trust
Tuning: A#EADF#B
Tabber: I<3Hobos

First riff
|-----------------------------------------------------------------------------------|
|-----------------------------------------------------------------------------------|
|-----------------------------------------------------------------------------------|
|------------------------------------13h16--------------------12h15-----------------|
|-1------2-1----3-2------------12h15-------12h15--------11h14-------11h14-----------|
|-0--00--2-1-00-3-2--00--12h15--------------------11h14-----------------------------|
     ..      ..      ..

this is all one riff, I just couldn't type it all across
|-----------------------------------------------|
|-----------------------------------------------|
|-----------------------------------------------|
|-----------------------------------------------|
|-1------2-1----3-2-------0---0---00000---------|
|-0--00--2-1-00-3-2--00---0---0---00000---------|
     ..      ..      ..   .   .   .....


all that is times 4


"She Screams Murder!"


|------------------------------------------------------------------------------------------|
|------------------------------------------------------------------------------------------|
|------------------------------------------------------------------------------------------|
|------------------------------------------------------------------------------------------|
|-000000-----00--000-000-000000-----------00000000000000000000--------00--000--000-0000000-|
|-000000-----00--000-000-000000-----------00000000000000000000--------00--000--000-0000000-|
  ......     ..  ... ... ......           ....................        ..  ...  ... .......


accert part and then theres this “tech part”
|---------------------------------------------------------------------------|
|---------------------------------------------------------------------------|
|----------------------------------------14h17------------------------------|
|-------------13h16----------------13h16-------13h16---------------13h16----|
|-------12h15----------------12h15---------------------------12h15----------|
|-12h15----------------12h15---------------------------12h15----------------|

------------------------------------|
------------------------------------|
------------------------------------|
-------------13h16------------------|
-------12h15--------12h15-----------|
-12h15--------------------12h15-----|

|-----------------------------------------------------------------------|
|-----------------------------------------------------------------------|
|--------------------------------------14h17----------------------------|
|-------------13h16--------------13h16-------13h16----------------13h16-|
|-------12h15--------------12h15----------------------------12h15-------|
|-12h15--------------12h15----------------------------12h15-------------|

-14h17p14----------14h17p14--------------|
----------16----16----------16-----------|
-------------14----------------14--------|
-----------------------------------------|
-----------------------------------------|
-----------------------------------------|


breakdown
|-------------------------------------------------------------------------------|
|-------------------------------------------------------------------------------|
|-------------------------------------------------------------------------------|
|-------------------------------------------------------------------------------|
|-1-0-1-4-3--0-1-0-1-4-3-0-1--0-1-4------1-0-1-4-3--0-1-0-1-4-3-0---------------|
|-1-0-1-4-3--0-1-0-1-4-3-0-1--0-1-4------1-0-1-4-3--0-1-0-1-4-3-0---------------|

then its the same with just breaks in it


Next riff
|------------------------------------------------------------------------|
|------------------------------------------------------------------------|
|------------------------------------------------------------------------|
|------------------------------------------------------------------------|
|---------6h9p6-----------------9h12p9-------------------6h9p6-----------|
|-0-6-9-6-------6h9p6--0-9-12-9---------9h12p9---0-6-9-6--------6h9p6----|

it continues up diminished scale
Добавлено: 28.02.2012
Другие материалы по этой песне:
  • Аккорды и текст

Страница создана 28.02.2012
http://primanota.ru/catalepsy/trust-chords.htm
Привет, Гость.
Предлагаем пройти революционный курс по гитаре.
Подарок от PrimaNota.Ru, забирай!